Listen to my bluebird laugh
 She can't tell you why
Deep within her heart you see
She knows only cryin',      just cryin',      yeah
There she sits, a lofty perch
Strangest color blue
Flying is forgotten now
She thinks only of you, just you, awww
So get all those blues, must be a thousand hues
And each is differently used, you just know 
You sit there mesmorized by the depth of her eyes
If you could catagorize, she got soul 
She got soul, she got soul, she got soul
RIFF 2 (during lyrics)
Do you think she loves you
Do you think at all?
SOLO (stop, RIFF 3, stop again, begin with banjo)
Soon she's going to fly away
Sadness is her own
Fill herself a bath of tears
And go home, and go home
(bass notes with playing D)
D ---0--0--0--0---------------------  ----------------
B --0--0--0--0----------------------  ----------------
G -5--5--5--5--5/2-0h2-0------------  ----------------
D -----------------------3p0---0----  -0------------0-
A ---------------------------3------  -------0h3--3---
D ----------------------------------  ---0------------

RIFF 3: (strum)
D -0-----------0-------------0-------
B ---2h3p2-------2-----------1-------
G ---------2-------2-0-------0-------
D ---------------------4--0--2-------
A ---------------------------3-------
D -----------------------------------

NOTE: This is very rough. Any improvements are welcome. It's not
immediately obvious that the song is in DADGBD, but I read Crosby
mentioning that as an aside in an interview. I didn't include the chords
because I'm not at all sure about the figurings, there being so many
slightly different ways to play D, G and so forth. There are so many
overdubbed guitars it's hard to tell what's going on.

variations - click chord images
Transpose chords:
Cool service:
View: Size:
A  A  A
  • Currently 2.9/5 Stars.
  • 1
  • 2
  • 3
  • 4
  • 5
  • Currently 2.8/5 Stars.
  • 1
  • 2
  • 3
  • 4
  • 5
click stars to rate
Login to add this song to your songbook
IMPORTANT: The song above is NOT stored on the Chordie server. The original song is hosted at www.lindesign.se. Chordie works as a search engine and provides on-the-fly formating. Chordie does not index songs against artists/composers will. To remove this song please click here.

login to add comments/video/corrections