Guitar Tabs, Chords and Lyrics


Nature of the angel beast  Bruce Cockburn



|[D]  //// |[G5]  //// |[D]  //// |[G5]  //// |[D]  //// |[G5]  //// :| (2x)
chorus:
|[Em6add3]  //// | [Asus4/7] //     [A]// :| (2x) |[D]  ////
solo: (my own) - see tab
D run D9/G D run G6 D run D9/G
| // // | // // | // // | //// | // // | //// |
Em6add3 run A run D
| // // | // // | //// |
out jam:
[Em6add3]|  //// |[Asus4/7]  //    [A] // :|
SOLO TABS:
common riffs:
D: G5:
|-2--2--3_2-2_0--|------------------|
|-3--3--3--------|-3--3-----3---3---|
|-2--2--2--------|-------0_4--0_4---|

[top 3 strings - riff off cbords above] 
D: D9/G:(1st end) G6:(2nd end)
|     ---------   |----0-          |---------------
|     --------- : |----3-          |-2/8----8!--8--
|     --4_0---0   |----2-          |-3/7--------7--
|     ------4--   |------          |-------0----9--
|     --------- : |-2--2-          |---------------
|     --0-0-0-0   |-0--0-          |---------------              

/ / p p p p / / // / / / / / /
|--2---2-------------|-----0---|-3-----|-0----------|-2--|
|--3---3-------------|-----3---|-3-----|-2---2/3/5!-|-3--|
|--2---2-------------|-----2---|-0-----|-2----------|-2--|
|----------3-3--2-0--|---------|-2--4/5|-2----------|-0--|
|--------------------|-2!--2---|-2-----|-0---0/2/4!-|-0--|
|--0-------0-0--0-0--|-----0---|-2--2/5|------------|-2--|

LYRICS:
From the lying mirror to the movement of stars
Everybody's looking for who they are
Those who know, don't have the words to tell
And the ones with the words, don't know too well
[cborus] 
Could be famine, could be the feast
Could be the pusher, could be the priest
Always ourselves we love the least
That's the burden of the Angel Beast
Birds of paradise, birds of prey
Here tommorrow, gone today
Cross my forehead, cross my palm
Don't cross me, or I'll do you harm [to cborus]
[solo] 
We go crying, we go laughing
Never understand, the time we were passing
Kill for money, die for love
Whatever was God thinking of [to cborus]
[out jam] 


Important: The song above is NOT stored on the Chordie server. The original song is hosted at www.lindesign.se. Chordie works as a search engine and provides on-the-fly formatting. Chordie does not index songs against artists'/composers' will. To remove this song please click here.

Text color:
Chord color:
Chord grids: 
Font size:    
Page size: 

A Asus4/7 D Em6add3 G5
variations - click chord images

Login - add to songbook

Transpose chords

Tuning

Rating click stars to rate

Layout
Accuracy

SHARE PAGE  




You need to log in to post comments