Guitar Tabs, Chords and Lyrics


Had to make you mine  Cheap Trick



G---------------------------


D--------2---5---------2----


A--3-5-3---3---3-5-3-5---5-3


E---------------------------


G--------2---5---------2-----------------------------------------------


D--3-5-3---3---3-5-3-5---5-3----------------------2---5---------2-------


A-------------------------------------------3-5-3---3---3-5-3-5---5-3--


E----------------------------------------------------------------------


G--------------------------


D-------2-3-5---------2-3-5


A---5-------------5---------


E--------------------------

       [F]         [C]         [F]    repeat  chorus to fade
questions, comments, etc. to senomar@bach.udel.edu
-I'm here, I'm queer, I play 5-string bass

Important: The song above is NOT stored on the Chordie server. The original song is hosted at www.lindesign.se. Chordie works as a search engine and provides on-the-fly formatting. Chordie does not index songs against artists'/composers' will. To remove this song please click here.

Text color:
Chord color:
Chord grids: 
Font size:    
Page size: 

C F
variations - click chord images

Login - add to songbook

Transpose chords

Tuning

Rating click stars to rate

Layout
Accuracy

SHARE PAGE  




You need to log in to post comments