Guitar Tabs, Chords and Lyrics


A shogun named marcus   Clutch











A Shogun Named Marcus           by Clutch
                                from the album "Transnational Speedway League"
                                words and music by Tim Sult, Dan Maines,
                                        Neil Fallon, and Jean-Paul Gaster
                                tabbed by Tom Mallon
 
Riff 1
E ----------------------------------------------------
B ----------------------------------------------------
G ----------------------------------------------------
D -------------------------------5--------------------
A -------------------------------4--------------------
E -0-0-5p0-4p0-0-0-4p0-3p0-3p0---3--------------------
 
Riff 2
E ----------------------------------------------------
B ----------------------------------------------------
G ------------------------9-10-11---------------------
D ------------------------8-9--10---------------------
A ------------------------7-8--9----------------------
E -0-0-0-0-0-0-0-0-0-0-0------------------------------
 
Riff 3
E ----------------------------------------------------
B ----------------------------------------------------
G ----------------------------------------------------
D -2-2-2-2--5-5-5-5-6-6-6-6-6-6-6---7-7-7-------------
A -2-2-2-2--5-5-5-5-6-6-6-6-6-6-6---7-7-7-------------
E -0-0-0-0--3-3-3-3-4-4-4-4-4-4-4---5-5-5-------------



Important: The song above is NOT stored on the Chordie server. The original song is hosted at www.lindesign.se. Chordie works as a search engine and provides on-the-fly formatting. Chordie does not index songs against artists'/composers' will. To remove this song please click here.

This song is displayed as text-only. Transposing and tuning is only available for chordpro-songs.

Login - add to songbook

Rating click stars to rate

Layout
Accuracy

SHARE PAGE  




You need to log in to post comments