Guitar Tabs, Chords and Lyrics


I like it in the butt   Unknown


e-1-2-1----------------1------------------------------


b--------------------2----3---------------------------


g-----------------------------------------------------


d--------3--3--3---------------7--6--6----------------


a--------3--3--3---------------7--6--6----------------


d--------3--3--3---------------7--6--6---------------- repeat x9




Like to wear a bag


over a weinie


beinie


leanie


meanie


seen me


bean me


riff 2


chorus


                                                                                     


e------------------------------------
b------------------------------------
g------------------------------------
d---5---5---5---6---6---6---7--------
a---5---5---5---6---6---6---7--------
d---5---5---5---6---6---6---7--------


Important: The song above is NOT stored on the Chordie server. The original song is hosted at www.lindesign.se. Chordie works as a search engine and provides on-the-fly formatting. Chordie does not index songs against artists'/composers' will. To remove this song please click here.

This song is displayed as text-only. Transposing and tuning is only available for chordpro-songs.

Login - add to songbook

Rating click stars to rate

Layout
Accuracy

SHARE PAGE  




You need to log in to post comments