Guitar Tabs, Chords and Lyrics

Simple   Collective Soul

Here are tabs for the two main riffs in "Simple," from Collective
Soul's latest album.  They are real close, but not quite perfect.
If anyone has some suggestions and/or corrections, please post!

First riff:
 E |-----------------------------------------------
 B |-----------------------------------------------
 G |-----------------------------------(second time)
 D |--2---2---------------------2----------(5)-----
 A |--2---2---7-p-0---2-h-5-p-2---0-0-h-2-h-5------
 E |--0---0----------------------------------------

Second riff:

 E |--2-------------------------------------------x--x-
 B |--2-------------------------------------------x--x-
 G |--0-----2-------------------------------2-----x--x-
 D |--0-----2-------------------------------2--2--x--x-
 A |--2-----0----------7-p-5-p-0------------0--2--x--x-
 E |--3------------0-0-----------3bb-p-0-0-----0--x--x-
Tablature explanation
    B      Full Bend               
    b      1/2  Bend               
    bb     1/4  Bend
    h      Hammer-on
    p      Pull-off   
    x      left-hand muted "scratch" strum

Important: The song above is NOT stored on the Chordie server. The original song is hosted at Chordie works as a search engine and provides on-the-fly formatting. Chordie does not index songs against artists/composers will. To remove this song please click here.

This song is displayed as text-only. Transposing and tuning is only available for chordpro-songs.

Login - add to songbook

Rating click stars to rate



You need to log in to post comments