Chordie logo

Fortunate son     Creedence Clearwater Revival









"Fortunate Son".....Creedence Clearwater Revival



Transcribed by: Chris McKillop

                cdmckill@novice.uwaterloo.ca









                Funky Intro bit.......

                                                                               

E-|---------------------------------------------------------------------------|

B-|-----8--------6----------5----------3--------------------------------------|

G-|---------------------------------------------------------------------------|

D-|-9-------7--------3^5-------2^3------------------------------------------|

A-|-----------------------------------------1---------------------------------|

E-|---------------------------------------------3-----------------------------|









G                   F

Some Folk are born, made to wave the flag.



    C                      G

    oh, that red white and blue.





And when the band played "Hail to the Chief".



    oh, they point the cannon at you.







G            D

It ain't me, it ain't me.



C                    G

I ain't no senitor's son, no.



             D

It ain't me, it ain't me.



C                    G

I ain't no fortunate son, no.





Some folks are born, silver spoon in hand,



    Lord, don't they help themselves.



But when the tax man come to the door,



    Lord, the house looks like a rumage sale.





It ain't me, it ain't me.



I ain't no millionaire's son, no.



It ain't me, it ain't me.



I ain't no fortunate son, no.







            Bridge Part (everyone else stays on G)

                -play thru twice

                                                                               

E-|---------------------------------------------------------------------------|

B-|-----6-----6--5-----5--1-----1---1/3-3------------------------------------|


G-|-----7-----7--6-----6--2-----2---2/4-4------------------------------------|

D-|---------------------------------------------------------------------------|

A-|---------------------------------------------------------------------------|

E-|---------------------------------------------------------------------------|





Some folks inherite star spangled eyes,



    oh they'll send ya down to war.



But when you ask 'em how much should we give,



    They'll only answer, more, more, more.





It ain't me, It ain't me.



I ain't no military son, no!





It ain't me, it ain't me.       }

                                |(x2)

I ain't no fortunate one, no.  }





It ain't me, it ain't me.



I ain't no fortunate son, no.





It ain't me, it ain't me................






 	Like I said, enjoy it....:)


			Chris
-- 
-----------------------------------------------------------------------------
Chris McKillop		"Happiness....is a warm gun..."
Computer Engineering             -The Beatles
University of Waterloo, Canada                  cdmckill@novice.uwaterloo.ca



Important: The song above is NOT stored on the Chordie server. The original song is hosted at www.lindesign.se. Chordie works as a search engine and provides on-the-fly formatting. Chordie does not index songs against artists/composers will. To remove this song please click here.

This song is displayed as text-only. Transposing and tuning is only available for chordpro-songs.

Rating click stars to rate

Layout
Accuracy

SHARE PAGE  

You need to log in to post comments