"Fortunate Son".....Creedence Clearwater Revival
Transcribed by: Chris McKillop
cdmckill@novice.uwaterloo.ca
Funky Intro bit.......
i dont know why i havent seen the right intro but here is the absoulte right intro trust me i know start at the 4th slide to 6 hit the bottom note on the lower e string 3 fret on the g string bend down a 1/4 step then hit open im 100% sure this is correct if u play with the song and know how to read the notation which should not be a problem
E-|--------5----------------3--------------2----------0----------------------------|
B-|-----------------------------------------------------------------------|
G-|----4/6-------------2/4-------------0h2------0h2-------------3----0----------------------|
D-|-----------------------------------------------------------------|
A-|--------------------------------------------------------------------------|
E-|--------------------------------------------------------------------------|
G F
Some Folk are born, made to wave the flag.
C G
oh, that red white and blue.
And when the band played "Hail to the Chief".
oh, they point the cannon at you.
G D
It ain't me, it ain't me.
C G
I ain't no senitor's son, no.
D
It ain't me, it ain't me.
C G
I ain't no fortunate son, no.
Some folks are born, silver spoon in hand,
Lord, don't they help themselves.
But when the tax man come to the door,
Lord, the house looks like a rumage sale.

It ain't me, it ain't me.
I ain't no millionaire's son, no.
It ain't me, it ain't me.
I ain't no fortunate son, no.
Bridge Part (everyone else stays on G)
-play thru twice

E-|---------------------------------------------------------------------------|
B-|-----6-----6--5-----5--1-----1---1/3-3------------------------------------|
G-|-----7-----7--6-----6--2-----2---2/4-4------------------------------------|
D-|---------------------------------------------------------------------------|
A-|---------------------------------------------------------------------------|
E-|---------------------------------------------------------------------------|
Some folks inherite star spangled eyes,
oh they'll send ya down to war.
But when you ask 'em how much should we give,
They'll only answer, more, more, more.
It ain't me, It ain't me.
I ain't no military son, no!
It ain't me, it ain't me. }
|(x2)
I ain't no fortunate one, no. }
It ain't me, it ain't me.
I ain't no fortunate son, no.
It ain't me, it ain't me................
Like I said, enjoy it....:)
Chris -- ----------------------------------------------------------------------------- Chris McKillop "Happiness....is a warm gun..." Computer Engineering -The Beatles University of Waterloo, Canada cdmckill@novice.uwaterloo.ca


Corrected by martinalways. View original
variations - click chord images
Transpose chords:
Tuning:
Cool service:
View: Size:
A  A  A
Rating:
Layout:
  • Currently 0/5 Stars.
  • 1
  • 2
  • 3
  • 4
  • 5
 
Accuracy:
  • Currently 3.6/5 Stars.
  • 1
  • 2
  • 3
  • 4
  • 5
 
click stars to rate
Chordie recommends:
Learn to play songs at Jamplay.com with video guitar lessons
Songbook:
Login to add this song to your songbook
Support the artist
Preview/buy this song
MSN Music
Why this non-profit ad?

 
login to add comments/video/corrections