Guitar Tabs, Chords and Lyrics


Lil devil   Cult








					LIL' DEVIL TAB



INTRO 

E--------------------------------|-------------------------------|	Play this RIFF twice
B--------------------------------|-------------------------------|
G--2-2----------2-2----------2-2-|--2----------2-2----------2----|	U - Upstroke
D--0-0--3-4-4b--0-0--3-p-0---0-0-|--0--3-4-4b--0-0--3-p-0---0----|
A--------------------------3-----|------------------------3------|	b - bend half a step
E--------------------------------|-------------------------------|

VERSE 1
										     
E------------------|------------------|---------------------|-----------------------|
B--3---3-----------|--3---3-----------|--3---3--------------|--3---3----------------|
G--2---2-----------|--2---2-----------|--2---2--------------|--2---2----------------|
D--0---0-----------|--0---0-----------|--0---0--------------|--0---0----------------|
A------------------|------------------|---------------------|-----------------------|
E------------------|------------------|---------------------|-----------------------|
Livin' in a shack  In a one horse town tryin to get to heaven before the sun going down  

    U
E-------------------|---------------|---------------|---------------|
A-------------------|---------------|--3---3--------|--3---3--------|
G--10--hold and-----|---5-----------|--2---2--------|--2---2--------|
D--10--slide to-----|---5-----------|--0---0--------|--0---0--------|
A---8---------------|---3-----------|---------------|---------------|
E-------------------|---------------|---------------|---------------|
Lizard in a bottle   yeah

E-----------------|-----------------|-----------------|-----------------|-----------------|
B--3---3----------|--3---3----------|-----------------|-----------------|--3---3----------|
G--2---2----------|--2---2----------|--10----hold and-|---5-------------|--2---2----------|
D--0---0----------|--0---0----------|--10----slide to-|---5-------------|--0---0----------|
A-----------------|-----------------|---8-------------|---3-------------|-----------------|
E-----------------|-----------------|-----------------|-----------------|-----------------|
Dizzy in a haze for 40 days          Hey there 		Little Devil

CHORUS
   U
E-----------------|-----------------|-----------------|-----------------|-----------------|-----------------|
B-----------------|-----------------|--3---3----------|-----------------|-----------------|--3---3----------|
G--10----hold and-|--5--------------|--2---2----------|-----------------|--5--------------|--2---2----------|
D--10----slide to-|--5--------------|--0---0----------|--3--------------|--5--------------|--0---0----------|
A---8-------------|--3--------------|-----------------|--3--------------|--3--------------|-----------------|
E-----------------|-----------------|-----------------|--1--------------|-----------------|-----------------|
		    			with RIFF A						with RIFF A
Come On		      Little Devil			Be my little	  Angel
   U
E-----------------|-----------------|-----------------|-----------------|-----------------|
B-----------------|-----------------|--3---3----------|-----------------|-----------------|
G--10----hold and-|--5--------------|--2---2----------|-----------------|--5--------------|
D--10----slide to-|--5--------------|--0---0----------|--3--------------|--5--------------|
A---8-------------|--3--------------|-----------------|--3--------------|--3--------------|
E-----------------|-----------------|-----------------|--1--------------|-----------------|
					with RIFF A 								
Come On		     Little Devil			Be my		Yeah

										RIFF A

E----------------------------------------------------------|			E------------------|	
B----------------------------------------------------------|			B------------------|
G--2-2----------2-2----------2-2--2----------2-2---------2-|			G--2-2-------------|
D--0-0--3-4-4b--0-0--3-p-0---0-0--0--3-4-4b--0-0--3-p-0--0-|			D--0-0--3-0--------|
A--------------------------3---------------- ----------3---|			A-----------3---0--|
E----------------------------------------------------------|			E------------------|
VERSE 2

E-----------------|-----------------|-----------------|-----------------|---------------------|-----------------|
B--3---3----------|--3---3----------|--3---3----------|--3---3----------|---------------------|-----------------|
G--2---2----------|--2---2----------|--2---2----------|--2---2----------|---5--5--------------|---5--5----------|
D--0---0----------|--0---0----------|--0---0----------|--0---0----------|---5--5--------------|---5--5----------|
A-----------------|-----------------|-----------------|-----------------|---3--3--------------|---3--3----------|
E-----------------|-----------------|-----------------|-----------------|---------------------|-----------------|

She came on with an Alligator smile  Dynamite lover    Scorpion child	 Tryin to get to heaven  Before the sun goes down

E-----------------|-----------------|-----------------|-----------------|-----------------|-----------------|
B--3---3----------|--3---3----------|--3---3----------|--3---3----------|--3---3----------|--3---3----------|
G--2---2----------|--2---2----------|--2---2----------|--2---2----------|--2---2----------|--2---2----------|
D--0---0----------|--0---0----------|--0---0----------|--0---0----------|--0---0----------|--0---0----------|
A-----------------|-----------------|-----------------|-----------------|-----------------|-----------------|
E-----------------|-----------------|-----------------|-----------------|-----------------|-----------------|
with RIFF B
				     She came on with a Cyclone kiss     Hey there baby you dont ever miss
   U										RIFF B
E-----------------|-----------------|-----------------|				E-----------------------------|	
B-----------------|-----------------|--3---3-3--------|				B-----------------------------|
G--10----hold and-|---5--5----------|--2---2-2--------|				G--2-2---------2-2----------2-|
D--10----slide to-|---5--5----------|--0---0-0--------|				D--0-0--3-4b---0-0--3-p-0---0-|
A---8-------------|---3--3----------|-----------------|				A-------------------------3---|
E-----------------|-----------------|-----------------|				E-----------------------------|
											b - bend half a step
Lizard in a 	  Bottle   yeah
CHORUS/SOLO

   U
E-----------------|-----------------|-----------------|-----------------|-----------------|-----------------|
B-----------------|-----------------|--3---3----------|-----------------|-----------------|--3---3----------|
G--10-----hold and|--5--------------|--2---2----------|-----------------|--5--------------|--2---2----------|
D--10-----slide to|--5--------------|--0---0----------|--3--------------|--5--------------|--0---0----------|
A---8-------------|--3--------------|-----------------|--3--------------|--3--------------|-----------------|
E-----------------|-----------------|-----------------|--1--------------|-----------------|-----------------|
		    			with RIFF A						with RIFF A
Come on little 	   Devil				Be my little	 Angel

   U
E-----------------|-----------------|-----------------|-----------------|-----------------|
B-----------------|-----------------|--3---3----------|-----------------|-----------------|
G--10-----hold and|--5--------------|--2---2----------|-----------------|--5--------------|
D--10-----slide to|--5--------------|--0---0----------|--3--------------|--5--------------|
A---8-------------|--3--------------|-----------------|--3--------------|--3--------------|
E-----------------|-----------------|-----------------|--1--------------|-----------------|
					with RIFF A
Come on little     Devil				Be my			Yeah

									
E---------------|--------------------------|-------------------------------------|-----------------------|
B---------------|--------------------------|-------------------------------------|-----------------------|
G---------------|--------------------------|-------------------------------------|-----------------------|	Guitar 2
D---------------|-7-7---------7-7----------|-7-7-----------------------------7-7-|-7-7--------------7-7--|
A---------------|-7-7---------7-7----------|-7-7-----------------------------7-7-|-7-7--------------7-7--|
E---------------|-5-5---------5-5----------|-5-5-----------------------------5-5-|-5-5--------------5-5--|													      							
		|			   |					 |			 |
		|			   |				     PM------------------------  |
E---------------|--------------------------|-------------------------------------|-----------------------|
B---------------|--------------------------|-------------------------------------|-----------------------|	
G---------------|--------------------------|----------------------------------2--|--2-0-2-0-2-0--2-2-0---|	Guitar 1
D---------------|-2-2----------2-2---------|-2-2---------------------------------|-----------------------|
A---------------|-0-0--3-4-4b--0-0--3-p-0--|-0-0---3--0---3--0-----3--0-----3----|-----------------------|
E-------5/9\5/9-|-------------------------3|------------3-------3--------3-------|-----------------------|
	  s s s
  Angel

E------------------|------------------------------------|-------------------------------------------------|
B------------------|------------------------------------|-------------------------------------------------|
G--7---------------|----------------7-7-----------------|--7-7------------7-7------------------------7-7--|	Guitar 2
D--7---------------|----------------7-7-----------------|--7-7------------7-7------------------------7-7--|
A--5---------------|----------------5-5-----------------|--5-5------------5-5------------------------5-5--|
E------------------|------------------------------------|-------------------------------------------------|
		   |					|						  |
 doublestop bend half step				|						  |
  -----------------|		    vib			|						  |
E------------------|---------10--8--10----8----8--10--8-|-10--8-----13b15--13--10------10------10---------|
B--7-7-7-7-7-7-7-7-|--8--10-----------------10----------|-------10---------------13b15---13b15--13--13b15-|
G--7-7-7-7-7-7-7-7-|------------------------------------|-------------------------------------------------|	Guitar 1
D------------------|------------------------------------|-------------------------------------------------|
A------------------|------------------------------------|-------------------------------------------------|
E------------------|------------------------------------|-------------------------------------------------|
			
		   |********* Guitar 3 Plays the intro riff 1 and a half times between here

E------------------------------------------------------|---------------------------------------------------|
B------------------------------------------------------|---------------------------------------------------|
G-----------------7-7---------------------------7-7----|---------------------------------------------------|	Guitar 2
D-----------------7-7---------------------------7-7----|---------------------------------------------------|
A-----------------5-5---------------------------5-5----|---------------------------------------------------|
E------------------------------------------------------|---------------------------------------------------|
						       |			play while still bent	   |
						       |		       -------------|	   	   |
E--10--13--15--15b17r15p13--15-----13--15--17--17b19---|--13b15--13-----10---------------------------------|
B-------------------------------15---------------------|-------------10-----13b15-13-13--13---10-----------|
G------------------------------------------------------|--------------------------------------10-----------|	Guitar 1
D------------------------------------------------------|---------------------------------------------------|
A------------------------------------------------------|---------------------------------------------------|
E------------------------------------------------------|---------------------------------------------------|
                  
		     and here               ***********|

OUTRO

   U
E-----------------|-----------------|-----------------|-----------------|-----------------|-----------------|    
B-----------------|-----------------|-----------------|-----------------|-----------------|-----------------|
G--10----hold and-|--5--------------|--2--2-------2---|-----------------|--5--------------|--2--2-------2---| Play 3 times
D--10----slide to-|--5--------------|--0--0-------0---|--3--------------|--5--------------|--0--0-------0---|
A---8-------------|--3--------------|--------3b-------|--3--------------|--3--------------|--------3b4------|
E-----------------|-----------------|-----------------|--1--------------|-----------------|-----------------|
		    		     with RIFF B					   with RIFF B
Come on little		Devil				Be my little	Angel

   U
E-----------------|-----------------|-----------------|----------------|----------------|---------------|---------------|    
B-----------------|-----------------|-----------------|----------------|----------------|---------------|---------------|
G--10----hold and-|--5--------------|--2--2-------2---|----------------|--5-------------|---------------|-2-------------|
D--10----slide to-|--5--------------|--0--0-------0---|--3-------------|--5-------------|---------------|-0-------------|
A---8-------------|--3--------------|--------3b4------|--3-------------|--3-------------|---------------|---------------|
E-----------------|-----------------|-----------------|--1-------------|----------------|---------------|---------------|
		    		     with RIFF B						       
This is a fairly simple song to play, basic 'meat and potatoes' heavy metal. Most of the song features one guitar 
but the guitar solo features 3 altogether. 
Guitar 1 plays the solo which is based around everybodys favourite pentatonic box on the 10th fret (making it in D minor) 
with the usual box extensions added. 
Guitar 2 plays simple power chords behind the solo. The timings for guitar 2 with reference to the solo are only approximate
but listening to the record should make all things clear. 
Guitar 3 plays the intro riff over all this where indicated. Itried to put this into the tab but everything started to look
pretty cluttered so its just shown by the ********. 
Comments, corrections, requests and idle banter welcome. email me at
			
			ellis_w_wayne@bt-web.bt.co.uk 



Important: The song above is NOT stored on the Chordie server. The original song is hosted at www.lindesign.se. Chordie works as a search engine and provides on-the-fly formatting. Chordie does not index songs against artists'/composers' will. To remove this song please click here.

This song is displayed as text-only. Transposing and tuning is only available for chordpro-songs.

Login - add to songbook

Rating click stars to rate

Layout
Accuracy

SHARE PAGE  




You need to log in to post comments