Guitar Tabs, Chords and Lyrics


Spiritwalker   Cult









Received: from sun2.nsfnet-relay.ac.uk by unix2.tcd.ie (5.65/TCD/1.36)
	id AA28291; Tue, 1 Mar 94 17:42:43 GMT
Via: uk.ac.coventry.hermes; Tue, 1 Mar 1994 15:37:53 +0000
Received: from cch.coventry.ac.uk by hermes.coventry.ac.uk with SMTP (PP) 
          id ; Tue, 1 Mar 1994 15:40:13 +0000


Message-Id: 
To: mcdonghj@unix2.tcd.ie

Status: RO
Well, here's something else for the list...  As requested...  

------------cuttez vous ici--------------
				-@-

		'Spiritwalker' - The Cult (Astbury/Duffy)

 				-@-

			Transcribed by Porl @

				-@-

Main Riff
---------

e:------3-------3--------
B:--3-------3---------3-- 
G:0---0---0---0-----0----
D:-----------------------

				-@-

Strum
-----

(NB: This is the chord(ette) strummed after the intro)

e:-3-
B:-3-
G:-0-

				-@-
Verse Riff
----------

e:--------------------------
B:-------------------------- 
G:--0-----0---0---0-----0---
D:----0-----0-------0-----0-
A:--------------------------
E:3-------------0-----1-----

				-@-

Highs
-----

(NB: 10 = ten, 11 = eleven...etc.)

e:-10--------10---------10--------10-----
B:------11--------13---------11--------13

				-@-

Last Verse First
----------------

e:------------------------------------------
B:--3---1---3---1-1-3---3---1---3---1-1p0---
G:0---0---0---0--0----0---0---0---0-------0-
D:------------------------------------------

				-@-

Last Verse Second
-----------------

e:--10---8---10---8-8-10---10---8---10---8-8-7---
B:8----8---8----8--8-----8----8---8----8-------8-
G:-----------------------------------------------  

				-@-

Close
-----

e:---15----------15------15-
B:---------15---------------
G:12----12----12------12----

				-@-

Now we have the ingredients here's the recipe...

	Order Of Play...
	----------------

Intro =		Main x 14
		Strum
Main Song =	Main x 4
		Verse Riff x 4
		Main x 4
		Verse Riff x 4
   [ 2nd Gtr:   Highs x 2 ]   (NB: First Gtr begins next sets of Mains after 
		Main x 4		the first of the Highs is complete)
		Last Verse First x 2
		Last Verse Second x 4
		Close x 10	

				-@-
++++++++++++++++++++++++++++++++++PORL @+++++++++++++++++++++++++++++++++++++
+ "And the rapids of my        +    ~ EARTH CALLING ANGELA ~     +  csi020  +
+  heart, will tear your       +     "I Kiss the Rain Where      + @cch.cov.+
+  ship of love apart." - Coil +    	 Angels Fall..."         +   uk.ac  +



Important: The song above is NOT stored on the Chordie server. The original song is hosted at www.lindesign.se. Chordie works as a search engine and provides on-the-fly formatting. Chordie does not index songs against artists'/composers' will. To remove this song please click here.

This song is displayed as text-only. Transposing and tuning is only available for chordpro-songs.

Login - add to songbook

Rating click stars to rate

Layout
Accuracy

SHARE PAGE  




You need to log in to post comments