Guitar Tabs, Chords and Lyrics


Trust   Cure






Received: from animal-farm.nevada.edu by redrock.nevada.edu (5.65c/M1.4)
	with SMTP id ; Mon, 26 Apr 1993 12:11:34 -0700
Received: from tolten.puc.cl by animal-farm.nevada.edu id ; Mon, 26 Apr 1993 12:11:28 -0700
Received: by tolten.puc.cl (5.57/Ultrix3.0-C)
	id AA07781; Mon, 26 Apr 93 15:11:22 -0400
Received: by isluga.puc.cl  (5.57/Ultrix2.4-C)
	id AA16676; Mon, 26 Apr 93 15:11:19 AST

Message-Id: 

To: jamesb@animal-farm.nevada.edu

X-Mailer: ELM [version 2.3 PL11]
"Trust" : The Cure
From : Wish
Mauricio Paredes
maparede@isluga.puc.cl

Riff "A1" (Piano)

--------|---------------------|-------------------|
--0-----|---------0-----------|--1----------------|
-----0--|-----0------------0--|----0-----------0--|  
--------|--2-----------2------|------------2------|
--------|---------------------|-------------------|
--------|--0------------------|--3----------------|

|---------------------|---------------------|
|--1-----1--3--1--0---|--1--0---------------|
|-----0---------------|--------0------------|
|---------------------|---------------------|
|--0------------------|---------------------|
|---------------------|--3------------------|

Riff "A2" (Guitar)

--------|------7--7-------7---|-----7--7-------7--|
--------|-----8--------8------|----8---------8----|
--------|--9---------9--------|--7---------7------|
--------|---------------------|-------------------|
--------|---------------------|-------------------|
--------|---------------------|-------------------|

|------5--5------5----|------3--------5-----|
|----5---------5------|----5---5----7---7---|
|--5---------5--------|--4--------7---------|
|---------------------|---------------------|
|---------------------|---------------------|
|---------------------|---------------------|

Riff "B1" (Piano)

|---------------------|---------------------|
|----0--1--0----------|--1--0---------------|
|--0------------------|--------0--0---------|
|---------------------|---------------------|
|----2----------------|-----3---------------|
|---------------------|---------------------|

                            1st time                    2nd time
|---------------------|---------------------|    |---------------------|
|-----0---------------|--0------------------|    |--0------------------|
|--0-----0------------|----0--2--0----------|    |-----0--2------------|
|------------0--------|-------------2-------|    |---------------------|
|---------------------|---------------------|    |--------0------------|
|-----3---------------|-------0-------------|    |---------------------|
Riff "B2" (Guitar)

|------2--2------2----|------3--3------3----|
|----3---------3------|----3---------3------|
|--4---------4--------|--4---------4--------|
|---------------------|---------------------|
|---------------------|---------------------|
|---------------------|---------------------|

                            1st time                    2nd time
|------7--7------7----|------7--7------7----|    |---5-----------------|
|----8---------8------|----8---------8------|    |---------------------|
|--7---------7--------|--9---------9--------|    |---------------------|
|---------------------|---------------------|    |---------------------|
|---------------------|---------------------|    |---------------------|
|---------------------|---------------------|    |---------------------|
Play :  A1              (2 times)
        A1      A2      (2 times)
        B1      B2      (2 times)

The rest of the song is :

        A1      A2      (4 times)
        B1      B2      (2 times)

Enjoy.
Mauricio


Important: The song above is NOT stored on the Chordie server. The original song is hosted at www.lindesign.se. Chordie works as a search engine and provides on-the-fly formatting. Chordie does not index songs against artists'/composers' will. To remove this song please click here.

This song is displayed as text-only. Transposing and tuning is only available for chordpro-songs.

Login - add to songbook

Rating click stars to rate

Layout
Accuracy

Jango Player

SHARE PAGE  




You need to log in to post comments