"yes"; ?> Dont go to strangers by J J Cale - guitar chords, guitar tabs and lyrics - chordie

Dont go to strangers

J J Cale

E-----------------|--------------------|---------------------|---------|

H-----------------|------------------1-|-1------1------------|--1------|

G---0---0-------0-|--3---3-------3---0-|-0---3--0--3---0--0--|--0--3---|

D---0---0-------0-|--3---3-------3-----|-----3-----3---0--0--|-----3---|

A-----------------|----------1---------|---------------------|---------|

E-----------3-----|--------------------|---------------------|---------|


 GmBbDC
E-----------------|--------------------|---------------------
H-----------------|------------------3-|-3-----1---3---------
G---0---0-------0-|--3---3-------3---2-|-2-----0---2---------
D---0---0-------0-|--3---3-------3-----|---------------------
A-----------------|----------1---------|---------------------
E-----------3-----|--------------------|---------------------

(Then there's a solo part over the same theme.)
(If any of you have trouble figuring this one out: Send me a mail and I'll
try to help!)
(Song starts:)
 GmBbCGm
      If Im standing in a crowd ___      call my name, ___   call it loud.
 GmBbD7
      Don't go to strang-ers,       woman,____ call on   me.
 GmBbCG
     Wave your  arm   in the air,___    let me know____   that you're there 
 D7G
     When in doubt,____       oh,   woman,     call on   me
(Main solo part starts. Progression: G Bb C G G Bb D7 Gm Bb C Gm D7 Gm)
 CG
     Don't   leave me     here to rust.____  Don't    let me turn to    dust._
 D7
     Oh,   wom-an,    when in doubt,____    call on me.____
 GBbCG
     If I'm stand-ing    in a crowd,_____   call my name,___  call it loud.__ 
 D7G
     Don't go to stran-gers     wom-an,   call on me.____
(Outro: Repeat & fade)
 GBbCG
  E------------------|-------------------|-----------------|--------------|
  H------------------|-------------------|----1---1--1---1-|--------------|
  G-----0---0--0---0-|-----3---3--3---3--|----0---0--0---0-|----0--0-0----|
  D-----0---0--0---0-|-----3---3--3---3--|-----------------|----0--0-0--0-|
  A------------------|--1----------------|-3---------------|--------------|
  E--3---------------|-------------------|-----------------|-3------------|

I hope you enjoy it, but remember: If you want to play along with the
recorded version you'll have to rearrange it in A.















Bb C D D7 G Gm
variations - click chord images
Transpose chords:
Tuning:
Cool service:
View: Size:
A  A  A
Rating:
Layout:
  • Currently 2.4/5 Stars.
  • 1
  • 2
  • 3
  • 4
  • 5
 
Accuracy:
  • Currently 2.3/5 Stars.
  • 1
  • 2
  • 3
  • 4
  • 5
 
click stars to rate
Chordie recommends:
Learn to play this song & others via video guitar lessons at JamPlay.com
Songbook:
Login to add this song to your songbook
Support the artist
Preview/buy this song
MSN Music
Why this non-profit ad?

 
login to add comments/video/corrections