Chordie logo


Salve regina   Gregorian Chant









Hail, Holy Queen            Salve Regina                      Solesme
                   
A Gregorian Chant. Normal guitar tuning. Chant has no time signature.
"." after a note means hold. "/" means hammer-on. "\" means pull-off.
e|--------------------------------------------|-----------------|-
b|----------------------1---0-------------------1-----------------
g|--------0--2--0.---2---------2--0--2--0--0.------0--2-----------
D|-----2-------------------------------------------------3.--0.---
A|--3-------------------------------------------------------------
E|----------------------------------------------------------------
   Sal-ve Re-gi-na, Ma-ter mi-se-ri-cor-di-ae: Vi-ta dul-ce-do,
e ---------------------------|------------------|--------------------------|-
b ------------------------------------0--1-------------0--2--0---------------
g -----------0-----------------0--2---------0.-----2------------2--0--2--0.--
D ---2---3-------2---2\0-----------------------------------------------------
A -----------------------3.--------------------------------------------------
E ---------------------------------------------------------------------------
    et spes nos-tra, sal-ve.   Ad te cla-ma-mus,   ex-su-les fi-li-i He-vae. 
 
 
e ----------------------|----------------------|----------------------------|-
b --1---------------------------------1---------------------------------------
g -----0---2------------------0---2------2---0.---2--0------------------------
D ------------3--0---2.---2------------------------------3--2--0---2---0------
A ------------------------------------------------------------------------3.--
E ---------------------------------------------------------------------------- 
    Ad te su-spi-ra-mus,  ge-men-tes et flen-tes in hac la-cri-ma-rum val-le.

 
e ---------------------------------|---------------------------------------|- 
b --------0--1.--------1--0-----------1--------------------------------------
g --0--2---------0--2--------2--0.-------0--2---------------0------2--0--0.--
D ---------------------------------------------3.--0--2--3-----3-------------
A ---------------------------------------------------------------------------
E ---------------------------------------------------------------------------
    E-ia er-go, Ad-vo-ca-ta nos-tra, il-los tu-os mi-se-ri-cor-des o-cu-los

 
e --------------------|---------------------------------------------------|-
b ----------------------------0--1.--0----------------------1---0-----------
g ----------------------0--2------------0---2---0---0---2------------2--0.--
D ---3--2--0--2\0-----------------------------------------------------------
A -----------------3.-------------------------------------------------------
E --------------------------------------------------------------------------
    ad nos con-ver-te.  Et Je---sum, be-ne-dic-tum fruc-tum ven-tris tu-i,

 
e -------------------------------------------|-
b ---------------1---0-------------------------
g ------0.---2----------2--0-------------------
D ----------------------------2.--3--2\0--3.---
A --3------------------------------------------
E ---------------------------------------------
    no-bis post hoc ex-si-li-um   o-sten-de.

 
e ----------------|------------------|-------------------|-----------------|-
b ------------------------1\0----------1.------------------------------------
g -------0----------0/2/4-----2\0--0.----0/2----------0.---------------------
D --2/3-----2.-------------------------------3.-0-2/3----------3--2----------
A -------------3.-------------------------------------------3--------5\3-3.--
E ---------------------------------------------------------------------------
    O     cle-mens, O         pi--a,   O          dul-cis, Vir-go Ma-ri--a
Hail Holy Queen, Mother of Mercy, our life, our sweetness, and our hope.
To thee do we cry, poor, banished children of Eve.
To thee do we send up our sighs,
mourning and weeping in this valley of tears.
Turn then, o most gracious advocate,
thine eyes of mercy towards us,
and after this our exile show unto us the blessed Fruit of thy womb, Jeus.
O clement, O loving, O sweet Virgin Mary.

Tablature by Rick Kephart  rmk@netaxs.com  http://www.netaxs.com/~rmk


Important: The song above is NOT stored on the Chordie server. The original song is hosted at www.lindesign.se. Chordie works as a search engine and provides on-the-fly formatting. Chordie does not index songs against artists/composers will. To remove this song please click here.

This song is displayed as text-only. Transposing and tuning is only available for chordpro-songs.

Login - add to songbook

Rating click stars to rate

Layout
Accuracy

SHARE PAGE  




You need to log in to post comments