Chordie logo


Dance of the sugarplum fairy   Piotr Tchaikovsky







 
I figured this out by ear and had to change some the arrangment for guitar
so don't expect 100% Tchaikovsky compatability. If someone can improve upon
this or even finish it please post the revised version.
 
 
 Dance of the Sugar Plum Fairy - The Nutcracker Suite - Tchaikovsky
        (Guitar arrangment : Greg Meldrum )
 
 
E----------------------
B----5----7----8---4---
G----4----6----9---5---   X 2
D----5----7----8---4---
A----------------------
E--0----0----0---0-----
 
 
E----3-2-3--2----3------7------6------5----0---0------------------------
B----0------2--4-5------6------8------7--0---1---0----------------------
G----0------2----3--7-7-7--6-6-6--5-5-5---------------------------------
D----------------------------------------2---2---2--2p0-----------------
A-------------------------------------------------------3p2p1-----------
E--0-----0-----0----0------0------0-------------------------------------
 
E--3-2-3--2---8-7---3-3-3---2-2-2-------------2---2---------------------
B--3------4-----8-------2-------2---5-5-5---4---5---4-------------------
G--3------2-----9-------3-------3-------3-------------------------------
D-----------------------------------------------------------------------
A------0------7-----------------------------2---2---2--2p0--------------
E-------------------2-------2-------2----------------------3p2p0--------
 
 
Greg Meldrum
x5by@unb.ca
http://parallel.cs.unb.ca:8080/~meldrum/grog.html



Important: The song above is NOT stored on the Chordie server. The original song is hosted at www.lindesign.se. Chordie works as a search engine and provides on-the-fly formatting. Chordie does not index songs against artists/composers will. To remove this song please click here.

This song is displayed as text-only. Transposing and tuning is only available for chordpro-songs.

Login - add to songbook

Rating click stars to rate

Layout
Accuracy

SHARE PAGE  




You need to log in to post comments