eToCache5 = ""; ?> Photograph by Def Leppard - guitar chords, guitar tabs and lyrics - chordie

Photograph

Def Leppard


- P H O T O G R A P H - By Def Leppard Words and Music by Steve Clark, Pete Willis, Rick Savage, Joe Elliot and Robert John 'Mutt' Lange Tabbed by FISH
Intro: ~~~~~~ E B A A4
|------0---0---0---0---0-----|---0---0-------0----------| |------5---5---5---4---4-----|---5---5-------3----------| |------4---4---4---4---4-----|---2---2-------2----------| --> 2 times |----------------------------|---------------0----------| |----------------------------|--------------------------| |----------------------------|--------------------------|
Riff A:
E B A A4
|------0---0---0---0---0-----|----0---0---0---0---0-----| |------5---5---5---4---4-----|----5---5---3---3---3-----| |------4---4---4---4---4-----|----2---2---2---2---2-----| --> 2 times |----------------------------|------------0---0---0-----| |----------------------------|--------------------------| |----------------------------|--------------------------|
Verse 1 (w/Riff A): ~~~~~~~~~~~~~~~~~~~ I'm outta love, outta luck Gotta photograph, picture of Passion Killer, you're too much You're the only one, i wanna touch
Fill 1:
|--------------------------------------| |--5-----5-----9---9---9-\-------------| |--7-----7-----9---9---9-\-------------| |--5-----5-----9---9---9-\-------------| |--7-----7-----7---7---7-\-------------| |--5-----5-----0---0---0---------------|
Pre-Chorus (w/Riff B+A 3 times): ~~~~~~~~~~~~~~~~~~~~~~~~~~~~~~~~
Riff B:
|-------------------------------------|---------------------------------------|
|-------------------------------------|--------------------------9----9----9--|
|-*/----------------------------------|--------------------------9----9----9--|
|-/-----------------------------------|--------------------------9----9----9--|
|----7----7----7----7----7----7----7--|-7----7----7----7----7----7----7----7--|
|----0----0----0----0----0----0----0--|-0----0----0----0----0----0----0----0--|
I see your face everytime i dream On every page every magazine So wild, so free, so far from me,
You're all I want My Fantasy...
|--0-----------------------------------------------------------------|
|--0------------4-----4-------------2-----2--------------------------|
|--1------------4-----4-------------2-----2--------------------------|
|--2------------4-----4-------------2-----2--------------------------|
|--2------------2-----2-------------0-----0--------------------------|
|--0-----------------------------------------------------------------|
Pre-Chorus II (w/Riff C): ~~~~~~~~~~~~~~~~~~~~~~~~~
Oh, Look what you've done to this rock n' roll clown, Oh, Look what you've done...
Riff C: (Play 2 times)
|--8-----8-----8-----8---|--7----7----7----7----|--10-----------------------|
|--8-----8-----8-----8---|--8----8----8----8----|--10----10----10----10-----|
|------------------------|----------------------|---------9-----9-----9-----|
|------------------------|----------------------|---------------------------|
|------------------------|----------------------|---------------------------|
|------------------------|----------------------|---------------------------| | | | |
|------------------------|----------------------|---------------------------|
|------------------------|----------------------|---------------------------|
|------------------------|----------------------|---------------------------|
|--5--5--5-------------5-|----5--5------------7-|-------------------------7-|
|--3--3--3-------------2-|----2--2------------5-|------7--7---------------5-|
|------------------------|----------------------|------5--5-----------------|
|--10----9----7----9-----| |--10---10---10---10-----| |------------------------| |------------------------| |------------------------| |------------------------| | | | | |------------------------| |------------------------| |------------------------| |------------------------| |-----7--7--5---7--7---7-| |-----5--5--3---5--5---5-|
Chorus: (w/Riff D) ~~~~~~~~~~~~~~~~~~
Riff D:
Let ring |---------------------------|--------------------------| |---------------------------|--------------------------| |---------0--------------0--|---------0-------------0--| |-----4--------------4------|-----4-------------4------| |-2-----------3-------------|-5-----------7------------| |---------------------------|--------------------------|
|---------------------------|--------------------------| |---------------------------|--------------------------| |---------0--------------0--|---------0-------------0--| |-----4--------------4------|-----4-------------4------| |-2-----------3-------------|-7-----------5------------| |---------------------------|--------------------------|
Photograph, I dont want your Photograph, I dont need your Photograph, All i've got is a photograph,
1. But it's not enough... 2. You've gone straight to my head!...(then Riff A) 3. I wanna touch you (then C5, D5, E5)
Additionnal Lyrics: ~~~~~~~~~~~~~~~~~~~ I'd be your lover, if you were there Put your hurt on me, if you dare Such a woman, you got style You make every man, feel like a child
You got some kinda hold on me You're all wrapped up in mystery So wild, so free, so far from me, You're all i want, my fantasy...
- T H E E N D -
AEAEAEAEAEAEAEAEAEAEAEAEAEAEAEAEAEAEAEAEAEAEAEAEAEAEAEAEAEAEAEAEAEAEAEAEAEAEAEAEAEAEAEAEAEAEAEAEAEAEAEAEAEAEAEAEAEAEAEAEAEAEAEAEAEAEAEAEAEAEAEAEAEAEAEAEAEAE OEAEAEoOEAE?. o AAECAE .OI?Cyen'AE' Current Adress: polivier@jrv.qc.ca D DOIUD A
AEAEAEAEAEAEAEAEAEAEAEAEAEAEAEAEAEAEAEAEAEAEAEAEAEAEAEAEAEAEAEAEAEAEAEAEAEAEAEAEAEAEAEAEAEAEAEAEAEAEAEAEAEAEAEAEAEAEAEAEAEAEAEAEAEAEAEAEAEAEAEAEAEAEAEAEAEAE Any comments/corrections/suggestions/other Lepp/anything are VERY welcome...


variations - click chord images
Transpose chords:
Tuning:
Cool service:
View: Size:
A  A  A
Rating:
Layout:
  • Currently 0/5 Stars.
  • 1
  • 2
  • 3
  • 4
  • 5
 
Accuracy:
  • Currently 3.2/5 Stars.
  • 1
  • 2
  • 3
  • 4
  • 5
 
click stars to rate
Chordie recommends:
Learn to play guitar with video-based, online guitar lessons at JamPlay.com
Songbook:
Login to add this song to your songbook
Support the artist
Preview/buy this song
MSN Music
Why this non-profit ad?

 
login to add comments/video/corrections