Chordie logo

Bored   Deftones






Date: Tue, 21 Nov 1995 13:51:04 -0800 (PST)



Bored-Deftones
Transcribed by James Albers

RIFF 1 		RIFF 2
E||----------------||------------------------||
B||----------------||------------------------||
G||----------------||----------8-8----7-7----||		h: hammer on
D||--------h-p-----||----------8-8----7-7----||		p: pull off
A||--111-0-^1^0----||--5-5-----6-6-66-5-5----||
D||--111-0-^1^0----||--5-5--55---------------||
  pm............

**Keep hand palm muted in front(!) of bridge through riff, esp. when the 
last note rings out--it gives it that bassy sound--then at the very end, 
just before you repeat, let up on the palm mute.

RIFF 3			RIFF 4			RIFF 4-END
E||----------------||---------------------||-----------------------||
B||----------------||---------------------||-----------------------||
G||-----------7----||---------------------||-----------------------||
D||-----------7----||---------------------||-----------------8888--||
A||--111-0--1/5----||--5555--5-5-55--5-5--||--5555--5-5-56---6666--||
D||--111-0--1^0----||--5555--5-5-55--5-5--||--5555--5-5-5--5-5555--||

Riff 1(24x)-Riff 2(2)-Riff 1(16x)-Riff 2(4x)-Riff 3(4x)-Riff 1(16x)
Riff 2(4x)-Riff 4(3x)-Riff 4(end)-tacit:(riff 2)bass-Riff 2(8x)-Riff 
3(3x)-Riff 1(1x)

---------------------------------
Bored-Deftones

Hear me spit on you wither I Remold into gold and bury I from (sun)

Reborn left to sigh recure maybe I'll Be born and simplify the way I lie 
before 

I get bored(4x)

Repent by you and trust to figure out 
I burn that gift to (you) doll and let it shine before

I get bored(3x) a wish for a real one

Pissed and confined before me or I and we come clean it get's worse it's more

I get bored(3x) a wish for a real one
I get bored(3x) a wish for a real one
----------------------------------
This is easy to play, but hard to master the palm muting part. Riff 2 is 
kinda right-rhythm is problably wrong, but chords are right. I think Riff 
4 is right, but I could be wrong.
Laters-
James 


Important: The song above is NOT stored on the Chordie server. The original song is hosted at www.lindesign.se. Chordie works as a search engine and provides on-the-fly formatting. Chordie does not index songs against artists/composers will. To remove this song please click here.

This song is displayed as text-only. Transposing and tuning is only available for chordpro-songs.

Login - add to songbook

Rating click stars to rate

Layout
Accuracy

SHARE PAGE  

You need to log in to post comments