Chordie logo

From the beginning     Emerson Lake & Palmer






First I must give credit to Glen Macon (macon@cbmvax.commodore.com) for
posting the original .crd text. Here is my version of the song (with TABs
for the intro). I have corrected some names of chords, corrected some
chords, but please Glen, this isn't to "flame you", just trying to be
helpful (it's a great song...). Any other ELP TABs or CRDs around,
anyone?

---------------------------------------------------------------------------

Title  : From the Beginning
Artist : Emerson,Lake and Palmer
TABs   : Jan Kalin
CRDs   : Glen Macon & Jan Kalin


                Symbols:


	        H       hammer-on
		P	pull-off  
		B	bend (upto note)
		S	slide
		[12]	touch the string ([12] is one octave higher than 0)


			  S           H   P	  H H	    S
E ||----------[12]-|-10-12-(7)-7-|-5-7-8-7-0-0-|-0-2-3-|---3-(8)-8-|
B ||------[12]-----|-------------|-------------|-------|-----------|
G ||--[12]---------|-------------|-------------|-------|--0--------|
D ||---------------|-------------|-------------|-------|-----------|
A ||---------------|-------------|-------------|-------|-0---------|
E ||-0-------------|-------------|-------------|-------|-----------|

     
E ||---------|----------------------|------------------------|
B ||---------|----10-10-----10-10---|----11-11-----11-11-----|
G ||----12-9-|--11--9--11-11--9--11-|--10--9--10-10--9--10---|
D ||--10--9--|-0---------0----------|-0---------0------------|
A ||-0-------|----------------------|------------------------|
E ||---------|----------------------|------------------------|

					   Am9....
E ||------------------|-------|-------------0-
B ||---6-5-6---6-5-6--|---6-5-|-------------0-....
G ||--5-----5-5-----5-|--5----|-------------5-
D ||-0-------0--------|-0-----|------0------5-....
A ||------------------|-------|--B-----B---0--
E ||------------------|-------|-2-(3)-2-(3)---....
 





     Am9            Em11           Dm7            Dm6       
  E A D G B E    E A D G B E    E A D G B E    E A D G B E 
  -----------    -----------    x----------    x---------- 
1 | | | | | |    | | | | | |    | | | | | |    | | | | | | 1
2 | | | | | |    | | | | | |    | | | | | |    | | | | | | 2
3 | | | | | |    | | | | o |    | | | | | |    | o-o-o-o-o 3

Important: The song above is NOT stored on the Chordie server. The original song is hosted at www.lindesign.se. Chordie works as a search engine and provides on-the-fly formatting. Chordie does not index songs against artists/composers will. To remove this song please click here.

This song is displayed as text-only. Transposing and tuning is only available for chordpro-songs.

Rating click stars to rate

Layout
Accuracy

SHARE PAGE  

You need to log in to post comments