Guitar Tabs, Chords and Lyrics


Alice in wonderland   Misc. Cartoons









Alice In Wonderland
by Fain/Hilliard

Tablature by Jonathan Byrd

Play the first 12 bars
play the 4 bars labeled [1.]
repeat the first 12 bars
play the 4 bars labeled [2.]
play the last 8 bars
     Dm7         G7          Cmaj7       Fmaj7
     1   2   3   1   2   3   1   2   3   1   2   3

e ||-------------3-------1---0---------------------
B ||-1-------------------0---0-------1---1---------
G ||-0-----------------------------------0---------
D ||-0---------------------------2-------3---------
A ||-----------------2-------3---------------------
E ||-------------3---------------------------------
   Bm7b5       E7          Am7         Eb7
   1   2   3   1   2   3   1   2   3   1   2   3

e -------------0-----------0---------------------
B -3---5---6---0-------3-----------1---2---------
G -2---------------1-------------------0---------
D -3---------------------------2-------1---------
A -2-----------------------0---------------------
E -------------0---------------------------------
   Dm7         G7          Em7         Am7
   1   2   3   1   2   3   1   2   3   1   2   3

e -----0---1---0-----------0-------3---8-------5-
B -3---------------0---3---0-----------8---------
G -2---------------0-----------0-----------------
D -0---------------------------------------5-----
A -------------------------------------0---------
E -------------3-----------0---------------------
[1.]  
   Dm7         G7          Em7         Am7
   1   2   3   1   2   3   1   2   3   1   2   3

e -3-------1---0-----------3---------------------||
B -1-----------0-------3---0-------------------1-||
G -----2-----------0---------------0-----------0-||
D -0-------------------------------0-------2-----||
A -----------------------------2-------0---------||
E -------------3-----------0---------------------||
[2.]
   Dm7         G7          C           Am7     A7
   1   2   3   1   2   3   1   2   3   1   2   3
                                                  \
e -3-------1---0---------------------------------||
B -1-----------0-------3---1-----------1-------2-||
G -----2-----------0---------------0---0-------0-||
D -0---------------------------2-------2-------2-||
A -------------------------3-----------0---------||
E -------------3---------------------------------||
                                                  /
   D7          G7          Em7         Am7
   1   2   3   1   2   3   1   2   3   1   2   3

e -------------5-----------3---------------------
B -3-------------------3---------------1---------
G ---------5-------4---------------0-----------0-
D -----4-----------------------------------2-----
A -5---------------------------2-------0---------
E -------------3-----------0---------------------

   Dm7         G7          Cmaj7       Fmaj7
   1   2   3   1   2   3   1   2   3   1   2   3

e -----0---1---3-------5---7-------3---0---------
B -3-----------0-----------5-----------1---------
G -2---------------------------5-------2---------
D -0-----------------------------------3---------
A -----------------2-------3---------------------
E -------------3---------------------------------

   F#m         B7b9        Em7         A7
   1   2   3   1   2   3   1   2   3   1   2   3

e -2-----------8-----------7---------------------
B -2-----------7-----------6-------10--5---------
G -2-----------8-----------------------6---------
D -------------7---------------9-------5---------
A -----------------------------------------------
E -2-----------7-----------0-----------5---------

   Dm7     A7  Dm7     A7  Dm7     G#7 G7  
   1   2   3   1   2   3   1   2   3   1   2   3

e -5---------------------------------------------
B -----6---8---6-------5-------------------------
G -7-------6-------5---6---5-------5---4---------
D -------------7---------------7---4---3---------
A -------------------------5-------6---5---------
E ---------------------5-----------4---3---------

   Dm7         G7          Cmaj7       Fmaj7
   1   2   3   1   2   3   1   2   3   1   2   3

e -------------3-------1---0---------------------
B -1-------------------0---0-------1---1---------
G -0-----------------------------------0---------
D -0---------------------------2-------3---------
A -----------------2-------3---------------------
E -------------3---------------------------------

   Bm7b5       E7          Am7         Eb7
   1   2   3   1   2   3   1   2   3   1   2   3

e -------------0-----------0---------------------
B -3---5---6---0-------3-----------1---2---------
G -2---------------1-------------------0---------
D -3---------------------------2-------1---------
A -2-----------------------0---------------------
E -------------0---------------------------------

   Dm7         G7          Em7         Am7
   1   2   3   1   2   3   1   2   3   1   2   3

e -----0---1---0-----------0-------3---10------8-
B -3-------------------3---0-------5---12-----10-
G -2---------------0-----------0-----------------
D -0---------------0-----------------------------
A -------------------------------------0---------
E -------------3-----------0---------------------

      (rit.)
   Dm7         G7          C
   1   2   3   1   2   3   1   2   3   1   2   3

e -------------0---------------------------------
B -6-------4---0-------5---1---------------------
G -7-------5-----------4---0---------------------
D -0-------------------3---2---------------------
A ---------------------4---3---------------------
E -------------3---------------------------------
                       ^
                       |
Db7#9 -----------------


Important: The song above is NOT stored on the Chordie server. The original song is hosted at www.lindesign.se. Chordie works as a search engine and provides on-the-fly formatting. Chordie does not index songs against artists'/composers' will. To remove this song please click here.

This song is displayed as text-only. Transposing and tuning is only available for chordpro-songs.

Login - add to songbook

Rating click stars to rate

Layout
Accuracy

SHARE PAGE  




You need to log in to post comments