Guitar Tabs, Chords and Lyrics


Jane Says  Jane's Addiction

Intro/Verse:

E---3-----3-3-----------------------------------------
B---3-----3-3-----2--2--------------------------------
G---0-----0-0-----2--2--2-4p2-------------------------
D---0-----0-0-----2--2--2-----4p2--------------------- (x12)
A-----------------0--0--0-----------------------------
E---3-----3-3-----------------------------------------

J[G]ane say[A]s, I'm d[G]one with Sergi[A]o
He treats me like a rag doll
She hides the television
Says I don't owe him nothing,
But if he comes back again, tell him to wait right here for me
Or just try again tomorrow

Chorus:

E---3---3-3---3---3--3--3--3---------------------
B---3---3-3---3---2--2--2--2---------------------
G---0---0-0---0---0--0--0--0---------------------
D---0---0-0---0---0--0--0--0--------------------- (x5)
A---2---2-2---2----------------------------------
E---3---3-3---3----------------------------------

I[G]'m g[Am7sus4]onna kick.........t[G]omor[Am7sus4]row
Gonna kick..............tomorrow

Jane says, have you seen my wig around?
I feel naked without it
She knows they all want her to go
But that's O.K. man she don't like them anyway
Jane says I'm goin' away to Spain, when I get my money saved
Gonna start tomorrow

I'm gonna kick tomorrow
Gonna kick tomorrow

S[G]he gets m[A]ad and she s[G]tarts to cry[A]
She takes a swing man she can't hit
She don't mean no harm she just don't know (don't know, don't know)
What else to do about it

J[G]....a....n[Am7sus4]....e.............s[G]....a....y[Am7sus4]....s
J....a....n....e.............s....a....y....s

Ah, ah-ah, ah-ah-ah, ah, ah, aaah, woo-woo, woo, woo-woo, woo

Jane goes to the store at eight
She walk up on St. Andrews
She waits and gets her dinner there
She pulls her dinner from her pocket
Jane says I ain't never been in love, I don't know what it is
She Only knows if someone wants her

I want them if they want me
I only know they want me

She gets mad, and she starts to cry
She takes a swing man she can't hit
She don't mean no harm, she just don't know (don't know, don't know)
What else to do about it

J....a....n....e.............s....a....y....s
J....a....n....e.............s....a....y....s

Ah, ah-ah, ah-ah-ah, ah, ah, aaah, woo-woo, woo, woo-woo, woo

Important: The song above is NOT stored on the Chordie server. The original song is hosted at www.lindesign.se. Chordie works as a search engine and provides on-the-fly formatting. Chordie does not index songs against artists'/composers' will. To remove this song please click here.

Text color:
Chord color:
Chord grids: 
Font size:    
Page size: 

A Am7sus4 G
variations - click chord images

Login - add to songbook

Transpose chords

Tuning

Rating click stars to rate

Layout
Accuracy

SHARE PAGE  




You need to log in to post comments