Guitar Tabs, Chords and Lyrics


Pain lies on the riverside   Live






!!!!!!!!!!!!!!!!!!!!!!!!!!!!!!!!!!!!!!!!!!!!!!!!!!!!!!!!!!!!!!!!!!!!!!!!!!!!!!
!!!!!!!!!!!!!!!!!!!!!!!!!!!!!!!!!!!!!!!!!!!!!!!!!!!!!!!!!!!!!!!!!!!!!!!!!!!!!!
!!!!!!!!!!!!!!!!!!!!!!!!!!!!!!!!!!!!!!!!!!!!!!!!!!!!!!!!!!!!!!!!!!!!!!!!!!!!!!
!!!!!!!!!!!!!!!!!!!!!!!!!!!!!!!!!!!!!!!!!!!!!!!!!!!!!!!!!!!!!!!!!!!!!!!!!!!!!!
!!!!!!!!!!!!!!!!!!!!!!!!!!!!!!!!!!!!!!!!!!!!!!!!!!!!!!!!!!!!!!!!!!!!!!!!!!!!!!
                        
                        "Pain Lies on the Riverside"
                            1/2 step downtuned

Structure:  Fall-In (Intro to Intro)
             Intro 
              Verse 
               Prechorus 
                Chorus (same as verse) 
                 Bridge 
              Verse 
               Prechorus 
                Chorus 
                 Interlude
               Prechorus 
                Chorus 
                 Extro
                        
                                   
                 _______________________________
                
                 ~~~~~~~~~~~~~~~~~~~~~~~~~~~~~~~

drums+ B--9h10--------------------|
       a-------9h10---------------|
       s------------9h10p9--------|
       s-------------------7\-----|
                
                 _____________________________
                
                 ~~~~~~~~~~~~~~~~~~~~~~~~~~~~~

**Play the following twice:
R: Am                      Am          Dm                      Dm

G------------------------|-----------|-----------------------|-----------|
u------------------------|-----------|-----------------------|-----------|
i------------------------|-----------|-5h7-------7h8p7---5---|-7---------|
t--5h7-------7h8p7---5---|-7---------|-----------------------|-----------|
a------------------------|-----------|-----------------------|-----------|
r------------------------|-----------|-----------------------|-----------|
   |   |    |    |         | |  |  |   |   |    |    |         |  |  | |
B------------------------|-----------|-----7-7-5-5-5-----5h7-|-----------|
a------7-7-5-5-5-----5h7-|-----------|---------------5h7-----|----rpt----|
s----------------5h7-----|----rpt----|-5-5-------------------|-----------|
s--5-5-------------------|-----------|-----------------------|-----------|
                
                 _____________________________
                
                 ~~~~~~~~~~~~~~~~~~~~~~~~~~~~~

**Play this 4 times per verse:

This is the same as the intro, but minus the lead guitar.

R: Am                      Am           Dm                      Dm        
   |   |    |    |         |  |  |  |   |   |    |    |         |  |  |  | 
B------------------------|------------|-----7-7-5-5-5-----5h7-|------------|
a------7-7-5-5-5-----5h7-|------------|---------------5h7-----|----rpt-----|
s----------------5h7-----|----rpt-----|-5-5-------------------|------------|
s--5-5-------------------|------------|-----------------------|------------|
                
                 _________________________________
                
                 ~~~~~~~~~~~~~~~~~~~~~~~~~~~~~~~~~

**Play this just once per prechorus:
R:  F                   G                   Am
                                           bad-ass struming these two
G--------------------|--------------------|-12------12--12-|-12-------------|
u--10-------10-------|-12--------12-------|-13------12--13-|-13-------------|
i--10-------10-------|-12--------12-------|-14------14--14-|-14-------------|
t--10----10----------|-12-----12----------|-14------14--14-|-14-------------|
a---8--8-------------|-10--10-------------|-12------12--12-|-12-------------|
r--------------------|--------------------|----------------|----------------|
    |     |    |  |     |      |    |  |     |   |   |   |    |   |   |   |
B--------------------|--------------------|----------------|----------------|
a--------------------|--------------------|----------------|----------------|
s--------------------|--------------------|----------------|----------------|
s---1----------------|--3-----------------|--5-------------|--5-------------|
 
G--------------------|--------------------|----------------|----------------|
u--10-------10-------|-12--------12-------|--9-------------|----------------|
i--10-------10-------|-12--------12-------|--9---crescendo-|while-strumming-|
t--10----10----------|-12-----12----------|--9-------------|----------------|
a---8--8-------------|-10--10-------------|--7-------------|----------------|
r--------------------|--------------------|----------------|----------------|
    |     |    |  |     |      |    |  |     |   |   |   |   |   |   |   |
B--------------------|--------------------|----------------|----------------|
a--------------------|--------------------|----------------|----------------|
s--------------------|--------------------|----------------|-------------7\-|
s---1----------------|--3-----------------|--0-------0-0-0-|-0-0-0-0-0-0----|
                
                 ______________________________
                
                 ~~~~~~~~~~~~~~~~~~~~~~~~~~~~~~

**Exactly like Verse except for the guitar changes a bit:

R: Am                      Am          Dm     Dmsus  Dm

G--5---------------------|-----------|--5-------5----5-------|-----------|
u--5---------strums============------|--6-------5----6----Listen-close---|
i--5---------------------|-----------|--7-------7----7----to-hear-these--|
t--7---------------------|-----------|--7-------7----7----two-chords-----|
a--7---------------------|-----------|--5-------5----5----traded-off!----|
r--5---------------------|-----------|-----------------------|-----------|

Play the above 3 times, then play the following 3 times:

R: E                 F       G
   |   |   |   |     |   |   |   |
B------------------|-----------------|
a------2-------2---|-----3-------5---|
s------------------|-----------------|
s--0-0-----0-0-----|-1-1---1-3-3---3-|

                
                 ______________________________
                
                 ~~~~~~~~~~~~~~~~~~~~~~~~~~~~~~

R: Am(hold)
   |    |    |    |
B---------------------|
a---------------------|
s---------------------|
s--5=================-|

                 _________________________________
                
                 ~~~~~~~~~~~~~~~~~~~~~~~~~~~~~~~~~
Play Intro riff twice. (The bass part changes to some neat
        slap-pop thingy I can't figure out. Sorry!)
                 _____________________________
                
                 ~~~~~~~~~~~~~~~~~~~~~~~~~~~~~
Same as interlude (intro w/ slap-pop bass), but 5 repeats, then play

R: Am(hold)
   |    |    |    |
B--------------------||
a--------------------||        The End!!!
s--------------------||
s--5================-||


                        Transcribed by Michael Gunter 

Questions, comments, TAB requests, marriage proposals, death threats,
priase, or hate mail? Contact me at:
                                        
 


Important: The song above is NOT stored on the Chordie server. The original song is hosted at www.lindesign.se. Chordie works as a search engine and provides on-the-fly formatting. Chordie does not index songs against artists'/composers' will. To remove this song please click here.

This song is displayed as text-only. Transposing and tuning is only available for chordpro-songs.

Login - add to songbook

Rating click stars to rate

Layout
Accuracy

SHARE PAGE  




You need to log in to post comments