Not the doctor

Alanis Morissette



e---------------------------------------------

B---------------------------------------------

G---------------------------------------------

D---------------------------------------------

A------0-0-2-0---0--------0-0-2-0-------------

E--0-4---------4---4--0-4---------4-0---------

e---------------------------------------------

B----------0------------------0---------------

G----1-2-2---2-1-2-1----1-2-2---2-1-----------

D--2------------------2-------------2---------

A---------------------------------------------

E---------------------------------------------


 GAE
 Visiting hours are 9 to 5 and if I show up at 10 past 6, well I
 GAE
 Already know that you'd find some way to sneak me in and oh
 GAE
 Mind the empty bottle with the holes along the bottom, you see it's
 F#mAm7DE
 Too much to ask for and I am not the doctor 
(E thru-out verse, with occasional hammer-on to Esus4)
I don't want to be the sweeper of the eggshells that you up walk upon
I don't want to be your other half I believe that 1 and 1 make 2
I don't want to be your food or the light from the fridge
on your face at midnight
Hey what are you hungry for
I don't want to be the glue that holds your pieces together
I don't want to be your idol
see this pedestal is high and I'm afraid of heights
I don't want to be lived through
A vicarious occasion, please
open the window
(Repeat chorus)
(E thru-out verse, with occasional hammer-on to Esus4)
I don't want to live on someday when my motto is next week
I don't want to be responsible for your fractured heart
and its wounded beat
I don't want to be a substitute for the smoke you've been inhaling
What do you thank me
What do you thank me for
(Repeat chorus - then end on a slow, upstroked E chord)
Suggested chords:
 EGAF#mAm7DEsus4
e-------3-------2--------2--------------------
B-----------2---2----1---3--------------------
G---1-------2---2--------2----2---------------
D---2-------2---4----2--------2---------------
A---2---2-------x--------x----2---------------
E-------3---x---x----x---x--------------------

btw, high "e" string is pretty sparsely used in strumming.
Enjoy!
------------------------------------------------------

George Quebbeman
Brighton, MI, USA
email: 75224.1545@compuserve.com
"Compound interest is the eighth wonder of the world."
-J.P.Morgan
------------------------------------------------------



A Am7 D E Esus4 F#m G
variations - click chord images
Transpose chords:
Tuning:
Cool service:
View: Size:
A  A  A
Rating:
Layout:
  • Currently 2.6/5 Stars.
  • 1
  • 2
  • 3
  • 4
  • 5
 
Accuracy:
  • Currently 2.6/5 Stars.
  • 1
  • 2
  • 3
  • 4
  • 5
 
click stars to rate
Chordie recommends:
Learn how to play guitar at JamPlay.com
Songbook:
Login to add this song to your songbook
Support the artist
Preview/buy this song
MSN Music
Why this non-profit ad?

 
login to add comments/video/corrections