Guitar Tabs, Chords and Lyrics


Hejira  Joni Mitchell



                ---------------------------------------


C---------------------------------------0----------


G---------------------------------------0----------


F---------0------------0------------0---------0----


D-------2----2-------2----2-------2---2-----2------


G-----2------------2------------2------------------


C--2------------2------------2---------------------


C-------------------------------------------0--------


G-------------------------------------------0--------


F----------0-------------0------------0----------0---


D-------3----3--------3----3-------3-----3-----3-----


G-----3-------------3------------3-------------------


C--3-------------3------------3----------------------


-------

[Dm11]       [Eb6/9]        [Dm11]       [Eb6/9]      Verse :
--------

[C6/9]I'm travelling on some vehicle
[Fsus2add4]Sitting in some [F]cafe
A [Fsus2add4]defector from the petty wars
tha[F]t shell shock love[C] away
[C6/9]There's comfort in melancholy
[Fsus2add4]When there's no need [F]to explain
It's just as [Fsus2add4]natural as the w[F]eather
in this moody sky[C] today
In our possessive [Fadd9]coupling
So much could not be ex[C]pressed
So now I am re[Fadd9]turning to myself
These [Gadd9add4]things that you and I supresse[G9add4]d
[Gadd9add4]      I see something of myself in [Fadd9]everyone
Just at this moment of the [C]world
As snow gathers like [Gadd9add4]bolts of lace
Waltzing on a [Fadd9]ballroom girl
Then back to the intro chords, and another verse...
Shapes :
--------

[CGDFGC]222000    [CGDFGC]333000   [CGDFGC]002222    [CGDFGC]555555    [CGDFGC]557755   [CGDFGC]002200
  [Dm11]          [Eb6/9]         [C6/9]         [Fsus2add4]      [F] [C]  [CGDFGC]555400   [CGDFGC]777600    [CGDFGC]777000
    [Fadd9]       [Gadd9add4]            [G9add4]        

Important: The song above is NOT stored on the Chordie server. The original song is hosted at www.lindesign.se. Chordie works as a search engine and provides on-the-fly formatting. Chordie does not index songs against artists'/composers' will. To remove this song please click here.

Text color:
Chord color:
Chord grids: 
Font size:    
Page size: 

C C6/9 Dm11 Eb6/9 F Fadd9 Fsus2add4 G9add4 Gadd9add4
variations - click chord images

Login - add to songbook

Transpose chords

Tuning

Rating click stars to rate

Layout
Accuracy

SHARE PAGE  




You need to log in to post comments