Chordie logo

Cake and sodomy   Marilyn Manson








-----------------------------------------------
-----------------------------------------------
--4---4---------2---2--------------------------
--4---4---------2---2--------------------------
--2---2---------0---0--------5~~~--------------
-----------------------------------------------
-----------------------------------------------
-----------------------------------------3-----
---------------------------2----2--------2-----
4-4-4-4-4---4-4------------2----2--------0-----
4-4-4-4-4---4-4------------0----0--------------
2-2-2-2-2---2-2--------------------------------
That's pretty close. Figure out the rhythyms for yourself.
The chords for the solo are just F#  A  B 

---Dave---



Important: The song above is NOT stored on the Chordie server. The original song is hosted at www.lindesign.se. Chordie works as a search engine and provides on-the-fly formatting. Chordie does not index songs against artists/composers will. To remove this song please click here.

This song is displayed as text-only. Transposing and tuning is only available for chordpro-songs.

Login - add to songbook

Rating click stars to rate

Layout
Accuracy

SHARE PAGE  

You need to log in to post comments