Guitar Tabs, Chords and Lyrics


Cake and sodomy   Marilyn Manson








Marilyn Manson - Cake and Sodomy

This is the solo at around 3:00 on the CD timer.

e:------------------------------------------------------------------------
---|
B:------------------------------------------------------------------------
---|
G:------------------------------------------------------------------------
---|
D:------------------------------------------------------------------------
---|
A:------------------------------------------------------------------------
---|
E:2--2--2--2--2--2/5--5--5--5--0--5--0--2--2--2--2--2--2/5--5--5--5/7--7--
0--|

e:------------------------------------------------------------------------
---|
B:------------------------------------------------------------------------
---|
G:--------------------------------------------------------------5--------8
---|
D:-----------------------------------------------------------4--------7---
---|
A:--------------------------------------------------------4--------7------
-4-|
E:2--2--2--2--2--2/5--5--5--5--0--5--0--2--2--2--2--5--5------------------
---|

e:--------------|
B:--------------|
G:----5--------8|
D:-4--------7---|
A:-------7------|
E:--------------|

I'll try to figure the other solo out, but i'm not even gunna try to tab
the
verse.  
Adam - DieRythmus@aol.com

________________________________________________________
|"My nueral nuts are still operational"-- Data from Start Trek            

|"I'd rather be used than useless"-- Mr. Manson (AKA Brian Werner) 
|"Don't be afraid and you'll realize"-- KMFDM                             
    
|"Uhhh... what?"-- Butthead                                               
           
|"It's hard to have a good time" -- Fraken Furter from Rocky Horror  
|"Who-whu?"-- Me, Myself, I                                               
             
--------------------------------------------------------------------------
-------------------------



Important: The song above is NOT stored on the Chordie server. The original song is hosted at www.lindesign.se. Chordie works as a search engine and provides on-the-fly formatting. Chordie does not index songs against artists'/composers' will. To remove this song please click here.

This song is displayed as text-only. Transposing and tuning is only available for chordpro-songs.

Login - add to songbook

Rating click stars to rate

Layout
Accuracy

SHARE PAGE  




You need to log in to post comments