Guitar Tabs, Chords and Lyrics


Happy birthday  Various Artists

e|--------------------------|-----------------3-------|
B|------------------3-----3-|-5-------3---------------|
G|--------------------------|-------------------------|
D|--------------------------|-------------------------|
A|--------------------------|-------------------------|
E|--------------------------|-------------------------|
    1   .   2   .   3   .     1   .   2   .   3   .   

                    Ha - ppy [G]Birth - day      to

e|--2-------x---------------|-----------------5-------|
B|--1-------x-------3-----3-|-5-------3---------------|
G|--2-------x---------------|-------------------------|
D|--0-------x---------------|-------------------------|
A|--0-------x---------------|-------------------------|
E|--------------------------|-------------------------|
    1   .   2   .   3   .     1   .   2   .   3   .

    [D7]You.            Ha - ppy [D7]Birth - day      to

e|--3-------x---------------|-10------7---------------|
B|--0-------x---------------|-----------------8-------|
G|--0-------x-------7-----7-|-------------------------|
D|--0-------x---------------|-------------------------|
A|--2-------x---------------|-------------------------|
E|--3-----------------------|-------------------------|
    1   .   2   .   3   .     1   .   2   .   3   .

    [G]You.            Ha - ppy [G]Birth - day     dear
e|--2-------0-------8-----8-|-7-------3-------5-------|-3---------
B|--3-------1---------------|-----------------7-------|-0---------
G|--2-------0---------------|-----------------5-------|-0---------
D|----------2---------------|-------------------------|-0---------
A|--------------------------|-------------------------|-2---------
E|--------------------------|-------------------------|-3---------
    1   .   2   .   3   .     1   .   2   .   3   .     1   .   2   

    [D]Some - [C]one.     Ha - ppy [G]Birth - day      [D7]to       [G]you
x = rest.

If you think it's a bit too long, I think that the first phrase
"Happy birthday to you" would be sufficient and will fit on one staff:

e|--------------------------|-----------------3-------|--2--
B|------------------3-----3-|-5-------3---------------|--1--
G|--------------------------|-------------------------|--2--
D|--------------------------|-------------------------|--0--
A|--------------------------|-------------------------|--0--
E|--------------------------|-------------------------|-----
    1   .   2   .   3   .     1   .   2   .   3   .      1  

                    Ha - ppy Birth - day      to         [D7]You.

(lead/vocal melody)
-----------------------------------------------------------------
-----------------------------------------------------------------
-----------------------------------------------------------------
--------------5-4-----------7-5------9-5-5-5-4-2-10-10-9-5-7-5---
------5-5-7-5-------5-5-7-5------5-5-----------------------------
-----------------------------------------------------------------

------------------- ------------------- ------------------- ------------------- -5-7-5-8vvvvvv----- -------------------
And many more...

Important: The song above is NOT stored on the Chordie server. The original song is hosted at www.lindesign.se. Chordie works as a search engine and provides on-the-fly formatting. Chordie does not index songs against artists'/composers' will. To remove this song please click here.

Text color:
Chord color:
Chord grids: 
Font size:    
Page size: 

C D D7 G
variations - click chord images

Login - add to songbook

Transpose chords

Tuning

Rating click stars to rate

Layout
Accuracy

SHARE PAGE  




You need to log in to post comments