Chordie logo

Spanish ballad   Misc. Traditional









this is pretty easy and sounds kinda cool if you're beginner to early 
intermediate.  *** some strings are left out cuz they maybe extraneous
all notes are 1/4 notes unless a single note on a string occupies the 
whole bar
C - refers to a barring action  - the roman numeral is what fret to bar 
it at.

Spanish Balad  	 - timing 3/4

1)
E--7------7------7-----|-7-----5-----3------|-3-----2-----0------|
B----0------0------0---|---0-----0-----0----|---0-----0-----0----|
G------0------0------0-|-----0-----0-----0--|-----0-----0-----0--|

E--0-------------------|-0------------------|-0------------------|

2)
E--0------3------7-----|-12------12------12-----|-12------10-------8----|
B----0------0------0---|----0-------0-------0---|---0-------0-------0---|
G------0------0------0-|------0-------0-------0-|-----0-------0-------0-|

E--0-------------------|--0---------------------|--0--------------------|
3)  1/2CV.......................................CVII....................
E--8------7------5-----|--5------7------8------|--7------8------7------|
B----5------5------5---|----5------5------5----|----7------7------7----|
G------5------5------5-|------5------5------5--|------8------8------8--|

A--0-------------------|--0--------------------|--7--------------------|

4) .......................
E--10------8------7------|--7------5------3------|--3------2------0------|
B-----7------7------7----|----0------0------0----|----0------0------0----|
G-------8------8------8--|------0------0------0--|------0------0------0--|
E--7---------------------|--0--------------------|--0--------------------|

5)
E--2------2------2------|--2------3------2-------|--0------0------0------|
B----0------0------0----|----0------0------0-----|----0------0------0----|
G------2------2------2--|------1------2-------2--|------0------0------0--|
D-----------------------|--1---------------------|--2--------------------|
A--2--------------------|------------------------|---------2-------------|
E-----------------------|------------------------|-----------------3-----|
END VERSION 1)		REPEAT AND END VERSION 2)

E--0---2--||		E--0------||
B	  ||		B----0-0--||
G	  ||		G---------||
	  ||
E--0------||		E--0------||
There's a second part but try this part out first everyday for at least a 
half hour.... practice practice practice

		- Neev



ok bye popular demand here's part two, same timing, but different scale I 
think.  any numbers under the tab is what fingering to use

LAST BAR
PLAYED
E--0-----||--4---4---4----|-4---2---0---|-------------|-------------|
B----0-0-||---0---0---0---|--0---0---0--|-5---4---4---|-4---2---4---|
G--------||----1---1---1--|---1---1---1-|--2---2---2--|--2---2---2--|
D					|---4---4---4-|---4---4---4-|
A					|-0-----------|-0-----------|
E--0-----||--0------------|--0----------|-------------|-------------|
C VII....................................... 1/2C IX..........
E-9---11---9---|-9---7---7---|-7---9---11---|-12---12---12---|
B--7----7---7--|--9---9---9--|--9---9----9--|---9----9----9--|
G---9----9---9-|---9---9---9-|---9---9----9-|----9----9----9-|

E-7------------|-0-----------|-0------------|-0--------------|
(FINGERING)      432

................. 1/2C V..................... C II...........
E-12---11---10---|-9---9---9---|-9---7---5---|-4---4---4----|
B---9----9----9--|--5---5---5--|--5---5---5--|--4---4---4---|
G----9----9----9-|---6---6---6-|---6---6---6-|---2---2---2--|

A----------------|-0-----------|-0-----------|-2------------|
E-0--------------|-------------|-------------|--------------|

.............. 		     ENDING 1 ENDING 2
E-4---5---2---|-0---0---0---|-0------|-0--2---|
B--4---4---4--|--0---0---0--|---0--0-|
G---2---2---2-|---0---0---0-|
D-------------|-2-----------|
A-2-----------|-----2-------|
E-------------|---------3---|-0------|-0------|
There not too hard

			- Neev



                         Spanish Ballad Part I
             
             
        Someone out there requested this so here it is.  This is my first 
TAB, so I'm not to sure I got the timing right.  The notes _are_ though.            
Here's the sybols I used:             

H - indicates hammering a note
 - note to hammer to
/ - a slide             
= - let ring
* - Certain parts of this song need written explianation,              
            you can find these explianations at the end.  The * shows which
            measures, and the letter shows which explaination you should 
            look at.
          

             H
e|----------2>3 / 7-|7-----7-----7-----|7-----5-----3-----|3-----2-----0-----|
b|------------------|--0-----0-----0---|--0-----0-----0---|--0-----0-----0---|
g|------------------|----0-----0-----0-|----0-----0-----0-|----0-----0-----0-|
D|------------------|------------------|------------------|------------------|
A|------------------|------------------|------------------|------------------|
E|------------------|0-----------------|0-----------------|0-----------------|


                     *A---------------| *B---------------------------------->
e|0-----3-----7-----|12----12----12----|12----10----8-----|8-----7-----5-----|
b|--0-----0-----0---|--0-----0-----0---|--0-----0-----0---|--5-----5-----5---|
g|----0-----0-----0-|----0-----0-----0-|----0-----0-----0-|----5-----5-----5-|
D|------------------|------------------|------------------|------------------|
A|------------------|------------------|------------------|0-----------------|
E|0-----------------|0-----------------|0-----------------|------------------|

  *B---------------| *C----------------------------------|                 
e|5-----7-----8-----|7-----8-----7-----|11----8-----7-----|7-----5-----3-----|
b|--5-----5-----5---|--7-----7-----7---|--7-----7-----7---|--0-----0-----0---|
g|----5-----5-----5-|----8-----8-----8-|----8-----8-----8-|----0-----0-----0-|
D|------------------|------------------|------------------|------------------|
A|0-----------------|------------------|------------------|------------------|
E|------------------|7-----------------|7-----------------|0-----------------|

                     *D----------------------------------|
e|3-----2-----0-----|2-----2-----2-----|2-----3-----2-----|0-----0-----0-----|
b|--0-----0-----0---|--0-----0-----0---|--0-----0-----0---|--0-----0-----0---|
g|----0-----0-----0-|----2-----2-----2-|----2-----2-----2-|----0-----0-----0-|
D|------------------|------------------|1-----------------|2-----------------|
A|0-----------------|2-----------------|------------------|------2-----------|
E|------------------|------------------|------------------|------------3-----|
e|0======-----------|------------------|------------------|------------------|
b|------------------|------------------|------------------|------------------|
g|------------------|------------------|------------------|------------------|
D|------------------|------------------|------------------|------------------|
A|------------------|------------------|------------------|------------------|
E|0======-----------|------------------|------------------|------------------|

*A- When you hit the 12th fret, do it with your pinky.  This allows you to
    get to the note quickly enough so that there's no gap.  It also sets you   
    up for part *B.

*B- Go from the 12th fret to the 10th and then the 8th with your pinky still
    and you will find that you can just lay your index finger over the e b 
    and g strings easily on the 5th fret.  Keep your index there until *C.

*C- Here you arpeggiate the chord (7xx877) and add the 8th fret and 11th fret 
    notes on the e string with you ring and index finger (respectively).  
    This will be a little tricky at first, but sounds great once you get it.
    I don't know the name of the chord, but I think its a B.  
    Do this chord by barring the 7th fret with your index and getting the
    8th fret with your middle.  That way, you have your ring and pinky left  
    so that you can do the reeeeach.

*D- Here you use a B7 chord (x21202) and just move your pinky up one fret 
    then back down in the second measure.  Play the chord like this:
                x 2 1 2 0 2
                  m i r   p  
    where m is for your middle finger, i for your index, and p for your pinky.

This song was TABed out by Steve Cronburg and he would greatly appreciate
any corrections for typos and such.  If you're going to copy this to someone,
he would really like it if you kept his name in here.

He can be reached at moonunit@cruzio.com until Jan. 15th.

-- 



Important: The song above is NOT stored on the Chordie server. The original song is hosted at www.lindesign.se. Chordie works as a search engine and provides on-the-fly formatting. Chordie does not index songs against artists/composers will. To remove this song please click here.

This song is displayed as text-only. Transposing and tuning is only available for chordpro-songs.

Login - add to songbook

Rating click stars to rate

Layout
Accuracy

SHARE PAGE  

You need to log in to post comments