Chordie logo


Under the double eagle   Misc. Traditional






Date: Fri, 8 Sep 1995 10:57:02 -0400



Title:  Under the Double Eagle 
Composer:  (Philip Sousa? I don't know)
Arranged/typed by: Chief Noda  . September 95
Tuning:  Standard
Key: C
Time: 2/2 (or 4/4) - I wrote it out as 4 beats per measure

Disclaimer: I am a fingerpicker. I don't to flatpicking any more. Bo 
Parker should be doing this! ;-)

Good one to listen to: Norman Blake "Whiskey Before Breakfast", ow 
available in CD from Rounder


    C                C                C                C
    |   |   |   |    |   |   |   |    |   |   |   |    |   |   |   |  
E-|----------------|-----0----------|-----0----------|-----0-------0--|
B-|----------------|-----1----------|-----1----------|-----1-------1--|
G-|----------------|-----0----------|-----0----------|-2-------0------|
D-|----------------|----------------|-2-----------2--|----------------|
A-|---------0---2--|-3-----------3--|---------3------|----------------|
E-|-----3----------|---------3------|----------------|----------------|


    C                G7               G7               C
    |   |   |   |    |   |   |   |    |   |   |   |    |   |   |   |  
E-|-----0----------|-----1----------|-----1----------|-----0-------0--|
B-|-----1----------|-----0----------|-----0----------|-----1-------1--|
G-|-----0----------|-0--------------|-----0----------|-----0-------0--|
D-|-2-------2---3--|---------3---2--|-0-------2---0--|----------------|
A-|----------------|----------------|----------------|-3--------------|
E-|----------------|----------------|----------------|---------3------|


    C                C                C                C
    |   |   |   |    |   |   |   |    |   |   |   |    |   |   |   |  
E-|----------------|-----0----------|-----0----------|-----0-------0--|
B-|----------------|-----1----------|-----1----------|-----1-------1--|
G-|----------------|-----0----------|-----0----------|-2-------0------|
D-|----------------|----------------|-2-----------2--|----------------|
A-|-3-------0---2--|-3-----------3--|---------3------|----------------|
E-|-----3----------|---------3------|----------------|----------------|


    C                G7               G7               C
    |   |   |   |    |   |   |   |    |   |   |   |    |   |   |   |  
E-|-----0----------|-----1----------|-----1----------|-----0-------0--|
B-|-----1----------|-----0----------|-----0----------|-----1-------1--|
G-|-----0----------|-0--------------|-----0----------|-----0-------0--|
D-|-2-------2---3--|---------3---2--|-0-------2---0--|----------------|
A-|----------------|----------------|----------------|-3--------------|
E-|----------------|----------------|----------------|---------3------|


    C                C                C                C
    |   |   |   |    |   |   |   |    |   |   |   |    |   |   |   |  
E-|-----0----------|-----0----------|-----0----------|-----0-------0--|
B-|-----1----------|-----1----------|-----1----------|-----1-------1--|
G-|-----0---0---0--|-2-------0---2--|-0--------------|-----0-------0--|
D-|----------------|----------------|---------2---0--|----------------|
A-|-3--------------|----------------|----------------|-3-------3------|
E-|----------------|----------------|----------------|----------------|


    C                C                C                F
    |   |   |   |    |   |   |   |    |   |   |   |    |   |   |   |  
E-|-----0----------|-----0-------0--|-----0-------0--|-----1-------1--|
B-|-----1----------|-----1-------1--|-----1-------1--|-----1-------1--|
G-|-----0----------|-----0-------0--|-----0---0------|-2-------2------|
D-|----------------|----------------|-2--------------|----------------|
A-|-3-------0------|---------3------|----------------|----------------|
E-|-------------4--|-3--------------|----------------|----------------|


    F                F                Fm               C
    |   |   |   |    |   |   |   |    |   |   |   |    |   |   |   |  
E-|-----1---1---1--|-----1-------1--|-----1-------1--|-----0----------|
B-|-----1---1---1--|-----1-------1--|-----1-------1--|-----1----------|
G-|-2--------------|-2-------2------|-1-------1------|-----0----------|
D-|----------------|----------------|----------------|----------------|
A-|----------------|----------------|----------------|-3-------2---3--|
E-|----------------|----------------|----------------|----------------|


    A7               D7               G7               C
    |   |   |   |    |   |   |   |    |   |   |   |    |   |   |   |  
E-|-----0----------|-----2-------2--|-----1----------|-----0-------0--|
B-|-----2----------|-----1-------1--|-----0----------|-----1-------1--|
G-|-----0----------|-----2-------2--|-----0----------|-----0-------0--|
D-|----------------|-0-------0------|----------------|----------------|
A-|-0-------0---4--|----------------|---------0---2--|-3--------------|
E-|----------------|----------------|-3--------------|---------3------|


    C
    |   |   |   |
E-|----------------||
B-|----------------||
G-|----------------||
D-|----------------||
A-|-3------(0)-(2)-||
E-|----(3)---------||
Note:
This is a very basic arrangement.
Some plays measure 27 in G# (Ab) instead of Fm. Both sound cool.




Important: The song above is NOT stored on the Chordie server. The original song is hosted at www.lindesign.se. Chordie works as a search engine and provides on-the-fly formatting. Chordie does not index songs against artists/composers will. To remove this song please click here.

This song is displayed as text-only. Transposing and tuning is only available for chordpro-songs.

Login - add to songbook

Rating click stars to rate

Layout
Accuracy

SHARE PAGE  




You need to log in to post comments