Guitar Tabs, Chords and Lyrics


Pain divine   Morbid Angel








"Pain Divine"  by Morbid Angel
tab by: Ky MacPherson  (pokey@uiuc.edu)
 
 
tune down 1/2 step
 
Eb-------------------||---------------------||
Bb-------------------||---------------------||
Gb-------------------||---------------------||
Db---7---3---5---8---||---/7---3---5---8----||
Ab---7---3---5---8---||---/7---3---5---8----||
Eb---5---1---3---6---||---/5---1---3---6----||
 
 
 
||-----------------|--------------------|-----------------|----------------||
||-----------------|--------------------|-----------------|----------------||
||-----------------|--------------------|-----------------|----------------||
||--3---2---4---2--|--------------------|--3---2---4---2--|----------------||
||--3---2---4---2--|--5\4--4\3--3\2--2--|--3---2---4---2--|--5\4--4/9--8---||
||--1---0---2---0--|--3\2--2\1--1\0--0--|--1---0---2---0--|--3\2--2/7--8---||
 
 
 
 trem pick all                 (2nd guitar)
|--------------|--------------|-------------------|-------------------|
|--------------|--------------|-------------------|-------------------|
|--------------|--------------|-------------------|--3---1--------1---|
|--------------|-----2--------|--3--(3)-----------|-(4)-(3)-1(4)-(1)--|
|--3--2--3--0--|--3-----3--0--|-(4)--4--1(4)-4(1)-|-------------------|
|--------------|--------------|-------------------|-------------------|
 
              
 
 
  +1/2 __     __    ___
     _/  \  _/  \__/   \_
 
||----------------------------||
||----------------------------||
||----------------------------||
||---6-----/9------------\7---||
||---6-----/9------------\7---||
||---4-----/7------------\5---||
     ge23@andrew.cmu.edu            George Economou
     economou@fox.fcasd.edu



Important: The song above is NOT stored on the Chordie server. The original song is hosted at www.lindesign.se. Chordie works as a search engine and provides on-the-fly formatting. Chordie does not index songs against artists'/composers' will. To remove this song please click here.

This song is displayed as text-only. Transposing and tuning is only available for chordpro-songs.

Login - add to songbook

Rating click stars to rate

Layout
Accuracy

SHARE PAGE  




You need to log in to post comments