Guitar Tabs, Chords and Lyrics


Deja vu   Yngwie Malmsteen








Yngwie Malmsteen "Deja Vu"
from Odyssey
letostak@netcom.com
Fig 1 play 4x
|---------------------------------|---------------------------------------||
|---------------------------------|---------------------------------------||
|---------------------------------|---------------------------------------||
|---------------------------------|---------------------------------------||
|-------------2-----2-4---2-4-5-2-|-4-5-2-5---5---5---4---4---4-----------||
|-2-4-5-2-4-5---4-5-----5---------|---------5---4---2---1---2---4-1-------||
last time ending
|----------------------------9--5------------------------------------------|
|-------------------------7--------7---------------------------------------|
|----------------------6--------------6------------------------------------|
|-------------4--6--7--------------------7--p--6---------------------------|
|----------4--------------------------------------8------------------------|
|-2--4--5------------------------------------------------------------------|
      I always knew  somewhere in time we'd meet again we'd cross that line
Fig 2
||---------------|-----------------|-----------------|---------------------|
||---------------|-----------------|--4--------------|--3~-----------------|
||---------------|--9--------------|--4--------------|--2~-----------------|
||---------------|--9----------9---|--4--------------|--4~-----------------|
||---9~----------|--7--------------|--2--------------|---------------------|
||---------------|-----------------|-----------------|---------------------|
Don't need to question, there's no reason why.  The answer lies before your
                                                                       eyes
|----------------|-----------x-----|-----------------|---------------------|
|-2--------------|-----------x-----|--4--------------|--7------------------|
|-2--------------|--9--------x-----|--4--------------|--7------------------|
|-4--------------|--9--------------|--4--------------|--7------------------|
|-4--------------|--7--------------|-----------------|--5------------------|
|-2--------------|-----------------|-----------------|------------x----0---|
                                 Do you know who I am  
|-----------------------------|-------------------|-------------------------|
|-----------------------------|-------------------|-------------------------|
|---6----------7-----6-----4--|-----6-----6-----4-|-6---------7-----6-----4-|
|---6----------7-----6-----4--|-----6-----6-----4-|-6---------7-----6-----4-|
|-----4-4-4-4----4-4---4-4----|-4-4---4-4---------|---4-4-4-4---4-4---4-4---|
|-----------------------------|-------------------|-------------------------|
                Do you understand?

|----------------------|----------------------|----------------------------|
|----------------------|----------------------|----------------------------|
|-----6-----7--6-------|----------------------|----------------------------|
|-----6-----7--6-------|----------------------|----------------------------|
|-4-4---4-4--------4---|-2-2-2-2--------------|----------------------------|
|----------------------|------------5-5-5-5-5-|-4-4-4-4-4---3-3-3-3-3------|
   Deja vu  dreams come true   I see my soul inside of you

|------------------|----------|------------|-------------------------------|
|-2----------------|----------|------------|-------------------------------|
|-2----------------|----------|------------|-s7----------------------------|
|-4----------------|--7-------|---9--------|-s7----------------------------|
|-4-------0----4---|--5-------|---6--------|-s5---5p4-5p4-----4------------|
|-2----------------|----------|------------|--------------7-5---7-5p4------|
Deja vu     so many lives familiar spirits behind you eyes

|------------------|----------|------------|-------------------------------|
|-2----------------|--7-------|------------|--0----------------------------|
|-2----------------|--7-------|------------|--9----------------------------|
|-4----------------|--7-------|---9--------|--9----------------------------|
|-4-------0----4---|--5-------|---6--------|--7----------------8-----------|
|-2----------------|----------|------------|-------------------------------|
play fig 1 with ending last time through

Cross between worlds through windows of light with open arms we hold back
                                                            the night. The
play fig2
|-----------------|-----------|--------xs-----------|----------------------|
|-----------------|-----------|--------xs-----------|----------------------|
|-----------------|-----------|--------xs-----------|----------------------|
|-----------------|-----------|---------------------|----------------------|
|-----------------|-----------|---------------------|----------------------|
|-----------------|-----------|----------------xs---|----------------------|

crystal of power we hold in our hands, so on forever and love is the plan
cont fig 2
|-----------------|-----------|---------------------|----------------------|
|-----------------|-----------|------------7--------|----------------------|
|-----------------|-----------|----------7----------|----------------------|
|-----------------|-----------|--------7------------|----------------------|
|-----------------|-----------|---------------------|----------------------|
|-----------------|-----------|---------------------|----------------------|
cont fig 2
Do you know who I am? Do you understand?

chorus
Deja vu dreams come true I see my soul inside of you
Deja vu so many lives familiar spirits behind your eyes
|---------|12h14p12p10-----------------------------------------------------|
|-19~-----|------------14p12-10p9---------------------------------0--------|
|---------|-----------------------11-10-----------------11-----------------|
|---------|-----------------------------12p11p9----------------------------|
|---------|-------------------------------------12p11p9--------------------|
|---------|----------------------------------------------------------------|
|-14p10-------10-14p10----------10-10p7-----10-14p10----------14-|-19p14----
|----------12----------12----12-----------7----------12----12----|----------
|-------11----------------11------------7---------------11-------|-------16-
|----------------------------------------------------------------|----------
|----------------------------------------------------------------|----------
|----------------------------------------------------------------|----------
----14-14p10----------10-10p7-----10-14p10-12-------14-|-15p12----------12p9
-15----------12----12-----------7-------------11-12----|-------14----14-----
----------------11------------7------------------------|----------15--------
-------------------------------------------------------|--------------------
-------------------------------------------------------|--------------------
-------------------------------------------------------|--------------------
-------9-9p6-----6-12-9-------9-|-15p12----------12p9-------9-15p12---------
----11---------8-----------11---|-------14----14---------11---------14----14
-12----------9----------12------|----------15---------12---------------15---
--------------------------------|-------------------------------------------
--------------------------------|-------------------------------------------
--------------------------------|-------------------------------------------
-12-18-15-------15--|-19p14---------14p10-------14-10-7-----10-14p10--------
-------------17-----|------15----15----------11-----------7-------------11--
----------18--------|---------16----------11------------7------------11-----
--------------------|-------------------------------------------------------
--------------------|-------------------------------------------------------
--------------------|-------------------------------------------------------
-14-|-19p14----------14p10-------14--|-19p14----------14p10-------14-10-7---
----|-------15----15----------11-----|-------15----15----------11-----------
----|----------16----------11--------|----------16----------11--------------
----|--------------------------------|--------------------------------------
----|--------------------------------|--------------------------------------
----|--------------------------------|--------------------------------------
-----10-19------|-------10-14p10----------10-14-11----------11-14p11-|15p12-
---7-------19---|----10----------10----10----------12----12----------|------
-7------------0-|-11----------------11----------------11-------------|------
----------------|----------------------------------------------------|------
----------------|----------------------------------------------------|------
----------------|----------------------------------------------------|------
----------12-15p12-------13-16p13----16-|-14tr15-14~----18tr19---18~-------|
-12----12-------------15----------14----|----------------------------------|
----12-------------16-------------------|----------------------------------|
----------------------------------------|----------------------------------|
----------------------------------------|----------------------------------|
----------------------------------------|----------------------------------|

  1/2
|-21b--rb21--21b--rb21--21b--rb21~--|-19-21-17-21----21-|----21-------------
|-----------------------------------|-------------21----|-19----18~--18s-15-
|-----------------------------------|-------------------|-------------------
|-----------------------------------|-------------------|-------------------
|-----------------------------------|-------------------|-------------------
|-----------------------------------|-------------------|-------------------
-------|--------------------------------------------------------------|-----
-14-12-|-15p12h14h15p14p12-15p14p12----14p12--------------------------|-----
-------|----------------------------14-------14p13p11-14p13p11-10--10p|-0---
-------|--------------------------------------------------------------|-----
-------|--------------------------------------------------------------|-----
-------|--------------------------------------------------------------|-----
------7-10p7---7---13p10-10-------13-16p13-13-------16-|-19p16--22--21-22-0-|
----9--------9---9-------------15----------------18----|--------------------|
-10-------------------------16----------------19-------|--------------------|
-------------------------------------------------------|--------------------|
-------------------------------------------------------|--------------------|
-------------------------------------------------------|--------------------|
|-17-14-16-17-16-14-19-14-17p16-14-21---17-16-17-16-14-19-17-16-17-16-14---|
|--------------------------------------------------------------------------|
|--------------------------------------------------------------------------|
|--------------------------------------------------------------------------|
|--------------------------------------------------------------------------|
|--------------------------------------------------------------------------|

                               2
|-21s---s21s---21---21-|--21---21b-rbs9h10----10p9-------9------------------
|----------------------|-------------------12------12p10---12-10-9----10p9--
|----------------------|-------------------------------------------10-------
|----------------------|----------------------------------------------------
|----------------------|----------------------------------------------------
|----------------------|----------------------------------------------------
---------|-9---7h10---7h9h10-9-10----10------------------|------------------
---------|---9------9-------------10----9tr10-9-7tr9-7~--|-s6p0-6h7p6-------
-11-10~--|-----------------------------------------------|------------9p7p6-
---------|-----------------------------------------------|------------------
---------|-----------------------------------------------|------------------
---------|-----------------------------------------------|------------------
-------------------------|--------------------------------------------|-----
-------------------------|----------------------6h9p6-7h9h10p7-8h10h12|10bf-
---9p6-------6-----------|----------6h9-6h7h7-7-----------------------|-----
-9-----9p7p6---9p7p6---7p|6---6h7h9-----------------------------------|-----
---------------------9---|--7-----------------------------------------|-----
-------------------------|--------------------------------------------|-----
---------------------------------|------------------------|
-rb10--10p7-9-10p9p7-9p6-7-9p7p6-|---7-10p7---------------|
---------------------------------|-7----------7p6---6-----|
---------------------------------|----------9-----9---9-7-|
---------------------------------|------------------------|
---------------------------------|------------------------|
w/wah
|-------------------------|------------------------------x--x--x--x--------|
|-------------------------|------------------------------x--x--x--x---0----|
|-------------------------|-0----------------------------------------------|
|----2--------------0-----|----2--0-----2--0-------------------------------|
|-------------0--2-----2--|----------2--------2--0-------------------------|
|-0-----0--3--------------|-------------------------3----------------------|
|-------------------------|------------------------------------------------|
|-------------------------|---------------------------------------8s-------|
|-------------------------|-0-------------------------------------7s-------|
|----2--------------0-----|----2--0-----2--0-------------------------------|
|-------------0--2-----2--|----------2--------2--0-------------------------|
|-0-----0--3--------------|-------------------------3--0--0----------------|
|-------------------------|------------------------------------------------|
|-------------------------|------------------------------------------------|
|-------------------------|-0----------------------------------------------|
|----2--------------0-----|----2--0-----2--0-------------------------------|
|-------------0--2-----2--|----------2--------2--0-------------------------|
|-0-----0--3--------------|-------------------------3bf--------------------|
Deja vu             dreams come true I see my soul inside of you

|-------------------|-----------|------------|-----------------------------|
|-2-----------------|-----------|------------|-----------------------------|
|-2-----------------|-----------|------------|-----------------------------|
|-4-----------------|--2--------|--9---------|-7---------------------------|
|-4---------0---4---|--3--------|--6---------|-5--5p4-----4----------------|
|-2-----------------|-----------|------------|--------7-5----7-5p4---------|
Deja vu so many lives we'd meet again we'd cross that line
Deja vu so many lives familiar spirits behind your eyes
Deja vu so many lives familiar spirits behind your eyes
play fig1 with ending

|----------------|------------------||
|----------------|------------------||
|---5------------|---4----------4---||
|---5------------|---4----------4---||
|---2------------|---2----------2---||
|----------------|------------------||



Important: The song above is NOT stored on the Chordie server. The original song is hosted at www.lindesign.se. Chordie works as a search engine and provides on-the-fly formatting. Chordie does not index songs against artists'/composers' will. To remove this song please click here.

This song is displayed as text-only. Transposing and tuning is only available for chordpro-songs.

Login - add to songbook

Rating click stars to rate

Layout
Accuracy

SHARE PAGE  




You need to log in to post comments