Guitar Tabs, Chords and Lyrics

Hair of the dog   Nazareth


I've done my best to make this sound like the recording as much as possible and

I'm going to assume you know the song well enough to place the given riffs

in order throughout the song... If anyone can correct me here, please do!

Riff 1                        Riff 1A


e: -------------------------  -----------------------
B: -------------------------  -----------------------
G: -------------------------  -----------------------
D: -------------2---5P2-0H2-  -------------2---5P2-0-
A: ---------0-2-------------  ---------0-2-----------
E: -0---0-3-----------------  -0---0-3---------------

Riff 2                        Riff 2A


e: -------------------------  -----------------------
B: -------------------------  -----------------------
G: -----------2---5P2-0H2---  -----------2---5P2-0---
D: -----------2-------------  -----------2-----------
A: -0---0-3-4---------------  -0---0-3-4-------------
E: -------------------------  -----------------------



e: ---------------------------
B: ---------------------------
G: -9-----------9-----7-7-9-9-
D: -9---5-7-----9-----7-7-9-9-
A: -7---5-7-----7-----5-5-7-7-
E: -----3-5-------------------

Important: The song above is NOT stored on the Chordie server. The original song is hosted at Chordie works as a search engine and provides on-the-fly formatting. Chordie does not index songs against artists/composers will. To remove this song please click here.

This song is displayed as text-only. Transposing and tuning is only available for chordpro-songs.

Login - add to songbook

Rating click stars to rate



You need to log in to post comments