Guitar Tabs, Chords and Lyrics


Married with children   Oasis










Married With Children
by Oasis
guitar solo transcription

I think someone chorded the rest of the song and posted it up here, but did
not include the solo.  It was pretty easy to figure out, except for a small
bridge in the middle, so I decided to post it up.  If anyone can figure out
the little part in the middle, good for you!  You're a musical genius!  After
you finish showing it off to your friends, could you post it or mail it to
me?  Thanks.

Basically, there is one riff played twice, with some variations the second
time.  I don't have the cd with me right now, and I can't remember some of
the variations in the second part.  What I'm trying to say is that this tab
is slightly off.  The variations are really easy to pick up, though, so you
can pretty much figure them out yourself.  If you really really can't figure
out the variations, mail me at scrape27@aol.com and I'll see if I can help
you out.
tune your guitar one half step down.

Part 1
Eb|------------------------------------------------------------|
Bbl------------------------------------------------------------|
Gb|---------------------9---9--11b--11b--11b--9----------------|
Db|---------------9--11---9------------------------------------|
Ab|-slide-5-to-9-----------------------------------9-9-7-9-7---|
Eb|------------------------------------------------------------|

Bridge
Eb|--?--| as if it wasn't
Bb|--?--| obvious enough...
Gb|--?--| 
Db|--?--| this is the part
Ab|--?--| that I couldn't
Eb|--?--| figure out

Part 2
Eb|----------------------------------------------|
Bbl----------------------------------------------|
Gb|---------------------9---9--11b--11b--11b--9--|
Db|--------------9--11----9----------------------|
Ab|-slide-5-to-9---------------------------------|
Eb|----------------------------------------------|
Eb|--------------------------------------|
Bb|-----------------12-------------------|
Gb|-11-slide-to-13------13--11--11h13--9-|
Db|--------------------------------------|
Ab|--------------------------------------|
Eb|--------------------------------------|

any corrections or additions welcome


Important: The song above is NOT stored on the Chordie server. The original song is hosted at www.lindesign.se. Chordie works as a search engine and provides on-the-fly formatting. Chordie does not index songs against artists'/composers' will. To remove this song please click here.

This song is displayed as text-only. Transposing and tuning is only available for chordpro-songs.

Login - add to songbook

Rating click stars to rate

Layout
Accuracy

SHARE PAGE  




You need to log in to post comments