Guitar Tabs, Chords and Lyrics


Slide away   Oasis






Here is another attempt at "Slide Away" from "Definitely,Maybe" by Oasis.

Chords used:

Am7		xx2x13
G (I)		32xxx3 
G (II)	355433
F		133x11
G7		353433
C		x32x13
F		133211
D7		xxx212



                              Slide Away by Oasis


Intro										x 2                                                                                
---------------------------------3--0-----------3--------------|----------------
---------------------------------------1--0--0-----0--------1--|---------------
-------5h7-----7--------------0--------------------------------|---7--9---------
---------------------------2-----------------------------0-----|----------------
------------------------0-----------------------------3--------|----------------
---------------------------------------------------------------|----------------


                                                                                
--------------------------------------------------------------------------------
--------------------------------------------------------------------------------
9--9------------------------------7--5--5---------------------------------------
----------------------------------------------7-----7-----------5-----7---------
-------------------------------------------------------5-----7------------------
--------------------------------------------------------------------------------
         
                                                                    

                                                                                
--------------------------------------------------------------------------------
--------------------------------------------------------------------------------
---5----------------------------------------------------------------------------
---------7-----7----------------------------------------------------------------
------------------------6-----5--5-----0-----0----------------------------------
--------------------------------------------------------------------------------
                                                                                
Am7			G			F

Slide away and give it all you've got
           
Am7		G			F
My today fell in from the top
            
Am7				G			F
I dream of you and all the things you say
           
Am7				G		F
I wonder where you are now
          
Am7			G		F
Hold me down all the world's asleep
          
 Am7				G			F
I need you now ,you've knocked me off my feet
          
  Am7				G			F          
I dream of you and we talk of growing old

Am7				G			F
But you said please don't

G		F	G(II)		F
Slide in baby, together we'll fly
         
G(II)		F		G(II)					G7
I tried praying and I dont know what you're saying to me

Chorus:
                           
		C 
Now that you're mine 


I'll find a way
                         
G			F
Of chasing the sun
                      

Let me be the one
                          
Am7			G
That shines with you

		D7					F
In the morning when you don't know what to do
                     
		C
Two of a kind 
                       
		G
We'll find a way 
                             
			F
To do what we've done
                         
Fm	F		Am7
Let me be the one 
                              
			G
That's shines with you and we can
                 
		F
Slide away                  

D7
Slide Away
         
D7	G		E        
Away ...........................


Solo:
                                                                             
---------------------5-------------------------------------------------|--------
------------------------5----------------------------------------------|--------
7-----9--9-----7--7--------7--5-----------5-----7-----5----------------|--------
------------------------------------7-----------------------5h7-----7--|--------
-----------------------------------------------------------------------|--------
-----------------------------------------------------------------------|--------
                                                                                

                                                                                
-------8-----8--10--8------------------------------|----------------------------
8--10------------------10--8--10--8--10-----10-----|----------------------------
---------------------------------------------------|----------------------------
---------------------------------------------------|----------------------------
---------------------------------------------------|----------------------------
---------------------------------------------------|----------------------------
                                                                                

                                                                                
---------------------------------------------------------------------------|----
---------------------------------------------------------------------------|----
7--9-----9--7-----5--7--5--------------------------------------------------|----
---------------------------7--5-----5--7--7--------------------------------|----
------------------------------------------------6-----5--5-----0--0--0--0--|----
---------------------------------------------------------------------------|----
                                                                                

                                                                                
10--12-----10--12--12--12-----10--10--8-----8-----------------------------------
--------------------------------------------------10--10--------8--8------------
----------------------------------------------------------7--9--------9--9------
--------------------------------------------------------------------------------
--------------------------------------------------------------------------------
--------------------------------------------------------------------------------
                                                                                

                                                                                
--------------------------------------------------------------------------------
--------------------------------------------------------------------------------
7-----5--5--------------5-------------------------------------------------------
------------7--5--7-----------7-----7-----7-----7-----0-------------------------
------------------------------------------------------------6-----5--5-----0----
--------------------------------------------------------------------------------

I hope someone can use this.  I've no idea of the timings - listen to the recording 
and you will work it out.

j.corbett@bbcnc.org.uk


Important: The song above is NOT stored on the Chordie server. The original song is hosted at www.lindesign.se. Chordie works as a search engine and provides on-the-fly formatting. Chordie does not index songs against artists'/composers' will. To remove this song please click here.

This song is displayed as text-only. Transposing and tuning is only available for chordpro-songs.

Login - add to songbook

Rating click stars to rate

Layout
Accuracy

SHARE PAGE  




You need to log in to post comments