Guitar Tabs, Chords and Lyrics


Habit  Pearl Jam



------------------------------------


------------------------------------


--3-7-3-3-7-3-7---------------------


------------------------------------


------------------------------------


------------------------------------


------------------------------------


------------------------------------


--3-7-3-3-7-3-7---------------------


------------------------------------


------------------------------------


------------------------------------

[F5]Par[-]t [E5]Nin[-]e [G5]- F[-]5 [F#5]E5 D[-]5[F5] [-] [D5]
Chord Chart
[A5]     [D5]     [G#5]      [F5]     [E5]     [G5]     [F#5]                                                                                          
----------------------------------
----------------------------------
----------------------------------
-----7---------------2------------
-7---5-----6-----3---2-----5----4-
-5---------4-----1---------3----2-

Best
Leo
dadson@neosoft.com
You're In A Laundry Room, The Clue Just Came To You."
Kurt Cobain - Sappy

Important: The song above is NOT stored on the Chordie server. The original song is hosted at www.lindesign.se. Chordie works as a search engine and provides on-the-fly formatting. Chordie does not index songs against artists'/composers' will. To remove this song please click here.

Text color:
Chord color:
Chord grids: 
Font size:    
Page size: 

A5 D5 E5 F#5 F5 G#5 G5
variations - click chord images

Login - add to songbook

Transpose chords

Tuning

Rating click stars to rate

Layout
Accuracy

SHARE PAGE  




You need to log in to post comments