Chordie logo


Killer queen   Queen








Here's most of the solo part for Killer Queen.  Enjoy it
Transcribed by Kenn Chipkin.

         [-hold bend-]       ~~~~~~~             ~~~~~~
|--------------------------------------------------------------------
|-----------------------------------------s------------10--11------10
|---12b(14)------------12--12-------12---10\9------------------12-----
|----------------------------------------------12----------------------
|--------------------------------------------------------------------
|--------------------------------------------------------------------

           ~~~~~~~rake                          ~~~~~~
|-------------------------full----------------------------------------
|---s---------------------|----------8----s-------------8-------------
|-10/9-------------------10------10------8/7---------------8--10---7--
|-------12---------x---------------------------10---------------------
|-----------------x---------------------------------------------------
|--------------------------------------------------------------------
                                     ~~~~~~~~         ~~~~~~~~~~~~~
|--------------------------------------------------------------------
|---------------full\----------------------------------------------------
|---------s-------|---\----------------------15--15p12--13p12--15p13-
|-17---17-\-16---15----------12----------x----------------------------
|--------------------------------------------------------------------
|--------------------------------------------------------------------
|--------------------------------------------------------------------

|--8-p-7---------------s-------------------------s---------------------
|----------10\s-------2/3---3-----(3)--------3--2\3--(3)---------------
|--------------------------------------------------------------------
|--------------------------------------------------------------------

                                  ~~~~~                   ~~~
|--full--full\----------full\-----------------------------------------
|---|-----|---\-(1/2)----|---\----------18 18p15-16p15----------------
|--15----15----15-------15-----------------------------17-------------
|------------------------------17-------------------------------17----
|--------------------------------------------------------------------
|--------------------------------------------------------------------
                               ~~~~~
|----------------full\------------------------------------------------
|---------s-------|---\----------------------15--15p12--13p12--15p13--
|-17---17-\-16---15----------12----------x----------------------------
|--------------------------------------------------------------------
|--------------------------------------------------------------------
|--------------------------------------------------------------------

                        [---hold bend---]~~~~~               full
|----------------------------------------------------15-------|-\-----
|16p15--18p16-----18b(20)---------------------16--18-----16--18--\p16-
|---------------------------------------------------------------------
|--------------------------------------------------------------------
|--------------------------------------------------------------------
|--------------------------------------------------------------------

   ~~~~~                              [--hold bend--]~~~~  
|--------------------------------------------------------------------
|---------18----s---------16----16b(18)---18----18-----------------------------------
|16-----------16\15---17------------------------------------------------------
|--------------------------------------------------------------------
|--------------------------------------------------------------------
|--------------------------------------------------------------------
        [-----hold bend-----]bend(3/2)   ~~~~~~~~~~~~~~~~~~~~~~~~
|----------18----------------------------------------------------------
|-18b(20)-----18----18------18--------(18)--------------------------------------------
|--------------------------------------------------------------------
|--------------------------------------------------------------------
|--------------------------------------------------------------------
|--------------------------------------------------------------------

I'll try to post the rest of the song soon.
Shahryar Khan




Important: The song above is NOT stored on the Chordie server. The original song is hosted at www.lindesign.se. Chordie works as a search engine and provides on-the-fly formatting. Chordie does not index songs against artists/composers will. To remove this song please click here.

This song is displayed as text-only. Transposing and tuning is only available for chordpro-songs.

Login - add to songbook

Rating click stars to rate

Layout
Accuracy

SHARE PAGE  




You need to log in to post comments