Guitar Tabs, Chords and Lyrics


Damn good times   David Lee Roth









Here's a repeat for those who missed it last time...

E-|-------------0-------0--------0--------------0-------0--------0------------
B-|-------------1------3-3-------1--------------1------3-3-------1------------
G-|-------------0-----0---0------0--------------0-----0---0------0------------
D-|-------------2--2/4-----4-4\2-2--------------2--2/4-----4-4\2-2------------
A-|-----0h5---0-------------------------0h5---0-------------------------------
D-|-0h5-----0-----------------------0h5-----0---------------------------------
 
 
E-|--------------0---0--------0---0-----------3p0---0--------7--7---5-5-------
B-|-----------3---3---3----3---3----3------1-----1----1------8--8---7-7-------
G-|-----------5----3---3---5----3-----3----0------0----------9--9---7-7-------
D-|-----------5------------5---------------3----------------10-10---7-7-------
A-|-----0h5-0------------3----------------------------------------------------
D-|-0h5----------------------------------3---------------0--------------------
 
 
E-|-----0---0-------0---0-----------3p0---0-------12--------7-------7--------5
B-|---3--3---3----3--3----3------1-----1----1-----12--------7-------7--------5
G-|---5---3---3---5---3-----3----0------0---------12--------7-------7--------5
D-|---5-----------5--------------3--------------------------------------------
A-|-0-----------3-----------------------------9/10-10h12p10-9--9-7-5--5-7-5-4-
D-|----------------------------3----------------------------------------------



Important: The song above is NOT stored on the Chordie server. The original song is hosted at www.lindesign.se. Chordie works as a search engine and provides on-the-fly formatting. Chordie does not index songs against artists'/composers' will. To remove this song please click here.

This song is displayed as text-only. Transposing and tuning is only available for chordpro-songs.

Login - add to songbook

Rating click stars to rate

Layout
Accuracy

SHARE PAGE  




You need to log in to post comments