Chordie logo

My iron lung   Radiohead






Date: Wed, 6 Sep 1995 15:04:03 -0500


Radiohead - My Iron Lung

Here's how to play the beginning:
                                             (bend and
                                              release)
--------10-------------7-------------8------------------------
-----8------8-------8-----8-------8-----8----10-/-\----8------
--------------------------------------------------------------
--------------------------------------------------------------
-10-------------8-------------6-------------------------------
--------------------------------------------------------------

--------10-------------7-------------8-----11-----11----------
-----8------8-------8-----8-------8-----8------8------8-------
--------------------------------------------------------------
--------------------------------------------------------------
-10-------------8-------------6-------------------------------
--------------------------------------------------------------

--------10-------------7-------------8---10---11---10---8-----
-----8------8-------8-----8-------8---------------------------
--------------------------------------------------------------
--------------------------------------------------------------
-10-------------8-------------6-------------------------------
--------------------------------------------------------------

--------10-------------7-------------8-----11-----11----------
-----8------8-------8-----8-------8-----8------8------8-------
--------------------------------------------------------------
--------------------------------------------------------------
-10-------------8-------------6-------------------------------
--------------------------------------------------------------

Have Fun!

-Dan

(zink@uiuc.edu)



Important: The song above is NOT stored on the Chordie server. The original song is hosted at www.lindesign.se. Chordie works as a search engine and provides on-the-fly formatting. Chordie does not index songs against artists/composers will. To remove this song please click here.

This song is displayed as text-only. Transposing and tuning is only available for chordpro-songs.

Login - add to songbook

Rating click stars to rate

Layout
Accuracy

SHARE PAGE  



You need to log in to post comments