Guitar Tabs, Chords and Lyrics


Take the power back   Rage Against The Machine








Take The Power Back
Rage Against The Machine

The Opening Bassline

Tune down 6->D
-----------------------------------------------------------------------------------------------------------------------------
-----------------------------------------------------------------------------------------------------------------------------
-----------------------------------------------------------------------------------------------------------------------------
-----------------------------------------------3---------------3---------------------3-----------------5-------------------
-----------------------------------------3h5-----5---3h5------------------3h5-----
5-----3h5---------------------------
--0-0---------0-0---------0-0--------------------------------0-0---------------------------------------------------------

Chorus:
     Db5           Eb5       Gb5       Db5      Eb5
-----------------------------------------------------------------------------------------------------------------------------
-----------------------------------------------------------------------------------------------------------------------------
-----------6/--------8---8/------11----------6---------8------------------------------------------------------------------------------
-----------6/--------8---8/------11----------6---------8----------------------------------------------------------------------------
-----------4/--------6---6/--------9---------4---------6-----------------------------------------------------------------------------
-----------------------------------------------------------------------------------------------------------------------------


--------------------------------------------
Golden BBS         BBS: 603-886-4563                  
Nashua, NH				  Voice/Fax: 603-886-9660    
--------------------------------------------



Important: The song above is NOT stored on the Chordie server. The original song is hosted at www.lindesign.se. Chordie works as a search engine and provides on-the-fly formatting. Chordie does not index songs against artists'/composers' will. To remove this song please click here.

This song is displayed as text-only. Transposing and tuning is only available for chordpro-songs.

Login - add to songbook

Rating click stars to rate

Layout
Accuracy

SHARE PAGE  




You need to log in to post comments