Guitar Tabs, Chords and Lyrics


Drive intro   R.E.M








Drive - REM

Intro

THE FOLLOWING IS PICKED IN AN UP AND DOWN MOTION AND SOMETIMES FOLLOWING
the note (F) on the 1st string 1st fret there may be an open D on the
fourth string.  p=pick up, h=hammer.  I hope this helps.
E|-------1-----1----------------|--------1-----1---------------|-
B|---3-----3-----3--------------|----3-----3-----3-------------|-
G|-----2-----2-----2--0---------|------2-----2-----2-0---------|-
D|-0--------------------3-p-2-3-|--0-------------------3-p-2-3-|-
A|------------------------------|------------------------------|-
E|------------------------------|------------------------------|-
E|-------1-----1----------------|-------1-----1-----------------------|
B|---3-----3-----3--------------|---3-----3-----3---3-----------------|
G|-----2-----2-----2--0---------|-----2-----2-----2-0-h-2-p-0---------|
D|-0--------------------3-p-2-3-|-0---------------------------3-p-2-0-|
A|------------------------------|-------------------------------------|
E|------------------------------|-------------------------------------|


Important: The song above is NOT stored on the Chordie server. The original song is hosted at www.lindesign.se. Chordie works as a search engine and provides on-the-fly formatting. Chordie does not index songs against artists'/composers' will. To remove this song please click here.

This song is displayed as text-only. Transposing and tuning is only available for chordpro-songs.

Login - add to songbook

Rating click stars to rate

Layout
Accuracy

SHARE PAGE  




You need to log in to post comments