Guitar Tabs, Chords and Lyrics


Harborcoat  R.E.M



      [E]            [G#m]               [A]  [add]     [B]                                                         
Eb-|--0--0--0--0--0--0--0--0--0--0--0--0--0--0--0-----0-----0-----0----|
Bb-|--0--0--5--0--4--4--5--4--4--5--5--5--5--5--5-----5-----5-----5----|
Gb-|--4--4--4--4--4--4--4--4--4--6--6--6--6--6--4--h6----6--4--h6----6-|
Db-|--6--6--6--6-------------------------------------------------------|
Ab-|-------------------------------------------------------------------|
Eb-|-------------------------------------------------------------------|

(The second guitar plays root and 5th of the chords, mixed low)
Verse
      [C#m]         [E]         [A]                        [B]                                                 
Eb-|--4--4--4----------------------------------------------------------|
Bb-|--5--5--5-----------5--5--5--5------5----------7-------------------|
Gb-|--6--6--6-----------6--6--6--6----6---6-----8-----8----------------|
Db-|--6--6--6--7--6-----7--7--7--7--7--------9-------------------------|
Ab-|-----------------7-------------------------------------------------|
Eb-|-------------------------------------------------------------------|

Interlude (Between Verses)
      [F#m]            [G#m]      [F#m]            [G#m]      [F#m]            [G#m]                                           
Eb-|-------------------------------------------------------------------|
Bb-|--7--7--7--7--9--9--7--7--7--7--9--9--7--7--7--7--9--9-------------|
Gb-|--6--6--6--6--8--8--6--6--6--6--8--8--6--6--6--6--8--8-------------|
Db-|--7--7--7--7--------7--7--7--7--------7--7--7--7-------------------|
Ab-|-------------------------------------------------------------------|
Eb-|-------------------------------------------------------------------|

      [F#m7]                                                                                           
Eb-|-----0-----0-----0-----0-----0-----0-----0-----0-------------------|
Bb-|--------7-----------7-----------7-----------7----------------------|
Gb-|--6-----------6-----------6-----------6----------------------------|
Db-|-------------------------------------------------------------------|
Ab-|-------------------------------------------------------------------|
Eb-|-------------------------------------------------------------------|

They crowded up together with their noses worn off
A handshake is worthy it's all that you've got
Metal shoes on wood it pushed her right back
There's a splinter in your eye, it reads react
Interlude
They shifted the statues for harboring ghosts
Redden their necks color their clothes
(or "Red menace color their clothes"???)
Then we danced with the rest but the menance got out
She gathered the corners and called it her gown
Chorus
Please find my harborcoat can't go outside without it
Find my harborcoat can't go outside without it
They crowded up together with their noses worn off
A handshake is worthy it's all that you've got
Metal shoes on wood pushed her right back
There's a splinter in your eye it reads react R-E-A-C-T
{break Em with 12th fret harmonics played fast and
furiously}
Chorus
They've shifted the statues for harboring ghosts
Redden their necks color their clothes
Then we danced with the rest but the menance got out
She gathered the corners and called it her gown
She said...
Post any corrections (especially lyrics for the 2nd and 3rd lines
in the second verse!)

Important: The song above is NOT stored on the Chordie server. The original song is hosted at www.lindesign.se. Chordie works as a search engine and provides on-the-fly formatting. Chordie does not index songs against artists'/composers' will. To remove this song please click here.

Text color:
Chord color:
Chord grids: 
Font size:    
Page size: 

A B C#m E F#m F#m7 G#m
variations - click chord images

Login - add to songbook

Transpose chords

Tuning

Rating click stars to rate

Layout
Accuracy

SHARE PAGE  




You need to log in to post comments