Guitar Tabs, Chords and Lyrics


Orange crush   R.E.M







ORANGE CRUSH (From the album "Green")
------------

Intro/Main Guitar Riff:
E-0---0---0-----0---0---0---0-----------
B---0---0---0-----0---0---0-------------
G---------------------------------------
D---------------------------------------
A---------------------------------------
E---------------------------------------

E------------0---0----------------------
B--3-0-----3---3---3--------------------
G------0-2------------------------------
D---------------------------------------
A---------------------------------------
E---------------------------------------
  (Repeat this entire riff twice)

Intro:   Em      G        D2
 
  Em         
 Follow me don't follow me
       G                 D     
 I've got my spine I've got my orange crush
  Em                 
 Collar me don't collar me
       G                 D
 I've got my spine I've got my orange crush
  Em            G
 We are agents of the free
        D
 I've had my fun and now its time to
  Em            
 Spread your conscience overseas
  G              D
 Coming in fast over me
#cutline#
   
 Paid in full



Important: The song above is NOT stored on the Chordie server. The original song is hosted at www.lindesign.se. Chordie works as a search engine and provides on-the-fly formatting. Chordie does not index songs against artists'/composers' will. To remove this song please click here.

This song is displayed as text-only. Transposing and tuning is only available for chordpro-songs.

Login - add to songbook

Rating click stars to rate

Layout
Accuracy

SHARE PAGE  




You need to log in to post comments