Guitar Tabs, Chords and Lyrics


Whats the frequency kenneth   R.E.M






WHAT'S THE FREQUENCY KENNETH? intro  -   R.E.M.


This is what I got, the rhythm not correct but should be really easy to
 figure out. Any corrections would be appreciated.

e ------------------------------------------------------------------------
B------------------------------------------------------------------------
G------------------------------------------------------------------------
D-----7--7--7--7--7--7--------------------------------------------------------
-
A-----9--9--9--9--9--9---9----5--5--5--5--5--5--------------------------------
--------
E----------------------------------7--7--7--7--7--7---------------------------
----

e ------------------------------------------------------------------------
B------------------------------------------------------------------------
G------------------------------------------------------------------------
D-----7--7--7--7--7--7--------------------------------------------------------
-
A-----9--9--9--9--9--9------9--------5--5--5--5--5--5------------------------
E-------------------------------7--------7--7--7--7--7--7---------------------
----------


Important: The song above is NOT stored on the Chordie server. The original song is hosted at www.lindesign.se. Chordie works as a search engine and provides on-the-fly formatting. Chordie does not index songs against artists'/composers' will. To remove this song please click here.

This song is displayed as text-only. Transposing and tuning is only available for chordpro-songs.

Login - add to songbook

Rating click stars to rate

Layout
Accuracy

SHARE PAGE  




You need to log in to post comments