"yes"; ?> Sleep by Savatage - guitar chords, guitar tabs and lyrics - chordie

Sleep

Savatage


~Subject: TAB:: "Sleep" by SAVATAGE ~From: JKELLY@uhavax (KELLY, JOSEPH)
"Sleep" by Savatage from "Edge of Thorns"
1) Verse
E-|---------3------------2----------0-----0---------0--------------------- ----|
B-|---------3------------3----------0---3----0------0--------------------- ----|
G-|---------0--------4---4----------0-----------0---0--------------------- ----|
D-|------0-----------4---4------2---2------------------------------------- ----|
A-|------------------2---2------2---2------------------------------------- ----|
E-|-3---------------------------0---0------------------------------------- ----|
E-|-0--0----3--3---0-------2--2---3--3----2---2--2------------------------ ----|
B-|-1--1----1--1---1-------3--3---3--3----3---3--3------------------------ ----|
G-|-0--0----0--0---0-------2--2---2--2----2---2--2------------------------ ----|
D-|-2--2----2--2---2-------0--0---0--0----0---0--0------------------------ ----|
A-|-3--3----3------3------------------------------------------------------ ----|
E-|-0--0----0------0------------------------------------------------------ ----|
2) "So lay back..." (This is played two times)
E-|-2----2-----0----0-----2----2----0----0-------------------------------- ----|
B-|-3----3-----0----0-----3----3----0----0-----------------3------------3- ----|
G-|-4----4-----0----0-----4----4----0----0--------------0------------0---- ----|
D-|-4----4-----2----2-----4----4----2----2-----------2------------0------- ----|
A-|-2----2-----2----2-----2----2----2----2--------3------------2---------- ----|
E-|------------0----0---------------0----0-------------------------------- ----|
E-|----------------------------------------------------2------------------ ----|
B-|----------3-------------------------3---------------3------------------ ----|
G-|-------2---------------0---------2-----2------------2------------------ ----|
D-|----2---------------0---------2-----------2---------0------------------ ----|
A-|-0---------------2---------0----------------0-------------------------- ----|
E-|--------------3-------------------------------------------------------- ----|
3) "If I could just sleep" (This is played 2 times after verse 1 and 4 times after verse 2.)
E-|-------------0------------------------2---2---------------------------- ----|
B-|----------------0---------------------3---3---------------------------- ----|
G-|----------0--------0------------------2---2---------------------------- ----|
D-|-------2--------------2---------2-----0---0---------------------------- ----|
A-|----2------------------------2----------------------------------------- ----|
E-|-0------------------------0-------------------------------------------- ----|
4) "And as I lay there..."
|-------------------- two times -----------------------|
E-|----------------------------------------------------------------------- ----|
B-|----------------------------------------------0------------------------ ----|
G-|----------0-----------0-----------0--------2--------------------------- ----|
D-|-------2-----------0-----------0--------2------------------------------ ----|
A-|----2-----------0-----------2--------0--------------------------------- ----|
E-|-0-----------2-----------3--------------------------------------------- ----|
|------------------- two times ------------------------|
E-|-------0------------0-----------0-------------0------------------------ ----|
B-|----------0------------0-----------0-------------0--------------------- ----|
G-|----------------------------------------------------------------------- ----|
D-|-------------------------------------------2--------------------------- ----|
A-|----2------------0-----------2----------0------------------------------ ----|
E-|-0------------2-----------3-------------------------------------------- ----|
5) "I don't care" |--------- three times ------------|
E-|-----------------------------------------0---------------------3------- ----|
B-|--------------------------------------------0--------------0---3------- ----|
G-|-2---------------------------------------------0-----------2---0------- ----|
D-|-2------------2---4---5----2---4---5-----------------------2---0------- ----|
A-|-0------------2---4---5----2---4---5-----------------------0---0------- ----|
E-|--------------0---2---3----0---2---3---------------------------3------- ----|
Verse 1
Hey there you, way out there in the distance can you here me? Are you there? I know it's late so please forgive my persistance but I'm hanging, do you care?
So lay back call of the attack Cause if you look deep dreams are nothing that I lack And all I seek is a final chance to speak And I would let the whole thing keep---
If I could just sleep
Verse 2
Hey there you, way out there could you show me just a signal, or a sign? That after all, all these years that you've known me that I'm not just, killing time.
So lay back call off the attack Cause if you look deep dreams are nothing that I lack And all I seek is a final chance to speak And I would let the whole thing keep---
If I could just sleep
And as I lay there late at night building castles in the air All those alibis and all those little lies then I look inside and pray that I don't care....
I don't care
I don't care
Hey there you, way out there in the distance....
-------------------------------------------------------------
That's about it. If I've butchered the song or lyrics in any way, I'm sorry. This is a really cool song to sit around and play. I hope someone appreciates this tab, and the band. Long live Criss! He's a hell of a player!
_____________________________________________________________
Transcribed by: Joe Kelly
Jkelly%dnet.uhavax@ipgate.hartford.edu Jkelly@uhavax.hartford.edu
If anyone's into: Savatage, Y & T, Dream Theater, Mr. Reality, Blue Murder, or anything else, drop me a line


variations - click chord images
Transpose chords:
Tuning:
Cool service:
View: Size:
A  A  A
Rating:
Layout:
  • Currently 0/5 Stars.
  • 1
  • 2
  • 3
  • 4
  • 5
 
Accuracy:
  • Currently 2.7/5 Stars.
  • 1
  • 2
  • 3
  • 4
  • 5
 
click stars to rate
Chordie recommends:
Get acoustic guitar lessons and electric guitar lessons at JamPlay.com
Songbook:
Login to add this song to your songbook
Support the artist
Preview/buy this song
MSN Music
Why this non-profit ad?

 
login to add comments/video/corrections