Guitar Tabs, Chords and Lyrics


Wednesday morning3 a m  Simon & Garfunkel



Wednesday Morning 3AM
                                 -------------------

By Simon & Garfunkel
Capo up 5 frets for recorded key.
play with fingers
C| . | . | . | . Dm *fill 1* C
T-----|---0---0---0---0-|---1---1---1---1-|---1---1---------|---0---0---0---0-|
------|---1---1---1---1-|---3---3---3---3-|---3---3---------|---1---1---1---1-|
A-----|---0---0---0---0-|---2---2---2---2-|---2---2---------|---0---0---0---0-|
------|-----------------|-0-------0-------|-0-------0h20----|-----------------|
B-----|-3-------3-------|-----0-------0---|-----0--------3-0|-3-------3-------|
------|-----3-------3---|-----------------|-----------------|-----3-------3---|

C I can hear Am F Em
T-----|---0-0-----0---0-|---0---0---0---0-|---1---1---0---0-|-----------------|
------|---1--1----1---1-|---1---1---1---1-|---1---1---0---0-|-----------------|
A-----|---0---0---0---0-|---0---0---2---2-|---2---2---0---0-|-----------------|
------|-----------------|-----------------|-----3-------2---|-----------------|
B-----|-3-------3-------|-3-------0-------|-----------------|-----------------|
------|-----3-------3---|-----3-------0---|-1-------0-------|-----------------|

And so on, the chords are as follows. Remember to always alternate the bass.
Add fill 2 in verses 3 and 4 to add a bit of variety. You can work out the
harmonies of the voices for yourself by using the balance control on your
CD player or whatever and listening to Art and Paul individually.
Verse1
------

[C]I can hear the soft [Am]breathing of the [F]girl that I [Em]love,
As she [C]lies here be[Dm]side me a[G]sleep with the night
And her [C]hair in a [Am]fine mist [F]floats on my [Em]pillow
Re[C]flecting the [Dm]glow of the [F]win[G]ter moon[C]light
Betwixt each verse put fill 1 in
Verse2
------

She is soft she is warm but my heart remains heavy,
As I watch as her breasts gently rise, gently fall.
For I know with the first light of dawn I'll be leaving,
And tonight will be all I have left to recall.
Verse3
------

Oh what have I done, why have I done it,
*wfill2*
I've committed a crime, broken the law.
For twenty five dollars and pieces of silver,
I held up and robbed a hard liquor store.
Verse4
------

My life seems unreal, my crime an illusion,
*wfill2*
A scene badly written in which I must play.
And I know as I gaze at my young love beside me,
The morning is just a few hours away.
Fill2
G C etc
T-----|---3---3---3---3-|---3---3---------|
------|---0---0---0---0-|---0---0---------|
A-----|---0---0---0---0-|---0---0---------|
------|-----0---2---1---|-0---------------|
B-----|-----------------|-----------------|
------|---3-------------|-----3-----------|

Transcribed by Richard Kent
Dedicated to Helen Taylor

Important: The song above is NOT stored on the Chordie server. The original song is hosted at www.lindesign.se. Chordie works as a search engine and provides on-the-fly formatting. Chordie does not index songs against artists'/composers' will. To remove this song please click here.

Text color:
Chord color:
Chord grids: 
Font size:    
Page size: 

Am C Dm Em F G
variations - click chord images

Login - add to songbook

Transpose chords

Tuning

Rating click stars to rate

Layout
Accuracy

SHARE PAGE  




You need to log in to post comments