Chordie logo

This night has opened my eyes     Smiths






Received: from animal-farm.nevada.edu by redrock.nevada.edu (5.65c/M1.4)
	with SMTP id ; Wed, 31 Mar 1993 16:39:10 -0800
Received: from rcvax.gmr.com (gmr.com) by animal-farm.nevada.edu id ; Wed, 31 Mar 1993 16:39:08 -0800
Date: Wed, 31 Mar 1993 19:38 EST


To: jamesb@animal-farm.nevada.edu
Message-Id: 
X-Vms-To: NET%"jamesb@nevada.edu"

2-----7----2----7----7--\--2---2-----7--\---2-2

2-----7----2----7----7--\--2---2-----7--\---2-2

2-----7----2----7----7--\--2---2-----7--\---2-2 (repeat)



------7--7--------7--7--9---7------7------7-----

8--8--7--7--8--8--7--7--------7-------10----10

------7--7--------7--7-----------7 (back to the first bar)

------------------------------------2nd time continues



(a)

7---\--2---2-----2---2----------------------------------

7---\--2-----2---2---2---3---2-----8--8--7 ---7--8----7-

7---\--2---------2---2---------2----------7------7-----9

--------------------------------------------------------



7---\--2---2-----2---2-----------------------------------

7---\--2------2--2---2----3----2----8--8---7----7--8--7--

7---\--2---------2---2-----------2-----------7------7---9

---------------------------------------------------------



-----------------------------------------

8---8---7----7---8---7----7-----a shoeless child..etc.  

----------7-------7--------9----goes back to the beginning    

--------------------------------after all words go back to 

                            (a)    and repeat last three bars



Questions,comments,concerns,and Smiths fans with anything 

to share, by all means  e-mail to roesser@gmr.com 


                                                  -Jerry




Important: The song above is NOT stored on the Chordie server. The original song is hosted at www.lindesign.se. Chordie works as a search engine and provides on-the-fly formatting. Chordie does not index songs against artists/composers will. To remove this song please click here.

This song is displayed as text-only. Transposing and tuning is only available for chordpro-songs.

Rating click stars to rate

Layout
Accuracy

SHARE PAGE  

You need to log in to post comments