Guitar Tabs, Chords and Lyrics


Jesus christ pose   Soundgarden










This is what I remember:

	Its played with the low E dropped to a D.

Theres alot of feedback and noise and then theres:

e|---------------------|
B|-----------------4b--|
G|-------3h4p3p0-------|
D|---------------------|
A|---------------------|
D|-0-------------------|

Where the 4b just means play the D# on the 4th fret and bend it till it 
sounds right.

e|-------------------------------------|
B|-------------------------------------|
G|-------------------------------------|
D|-------------------------------------|
A|-------------------------------------|
D|-0-0-0-0-8-8-0-0-0-0-8-8-7-7-8-8-8-8-|

This gets played next and through the verse. Play this twice and then
replay two more times just slide two the 6th and 5th frets instead.

Something like this gets played overtop of it before the first verse.

D|--6------------8--------4------|

Thats the low D string.

The spacing has nothing to do with time really.  I spaced out the
last part just so you know what part of the song I'm refering to.

I don't remember what the riffs are exactly, so it may not be
accurate.  At least you know where to start and you can go from
there.

Questions/Comments 
cevasp@rpi.edu

	Patrick



Important: The song above is NOT stored on the Chordie server. The original song is hosted at www.lindesign.se. Chordie works as a search engine and provides on-the-fly formatting. Chordie does not index songs against artists/composers will. To remove this song please click here.

This song is displayed as text-only. Transposing and tuning is only available for chordpro-songs.

Login - add to songbook

Rating click stars to rate

Layout
Accuracy

SHARE PAGE  




You need to log in to post comments