Guitar Tabs, Chords and Lyrics


Made of stone   Stone Roses










This is the TAB for the intro/outro of this song:

E------10------------10---------------------------9---------------
B-----------8-------------8--------8---------------------8---------
G--9------------9-------------9-------------9------------------9--
D--------------------------------------------------------------------
A--------------------------------------------------------------------
E---------------------------------------------------------------------

E---9---------------------------8------------------8------------------
B--------8--------8------------------8-----------------8----------8--
G-------------9-----------9---------------9------------------9-------
D----------------------------------------------------------------------
A---------------------------------------------------------------------
E---------------------------------------------------------------------

E--------7-----------------7-----------------------------------------
B-------------8-----------------8-------7h8p7---------------------
G--9---------------9------------------------------------------------
D--------------------------------------------------------------------
A--------------------------------------------------------------------
E---------------------------------------------------------------------

E-------10-------------10---------------------------9-------------
B-------------8---------------8----------8---------------8--------
G--9---------------9---------------9-----------9-------------9--
D--------------------------------------------------------------------
A--------------------------------------------------------------------
E--------------------------------------------------------------------

E--9----------------------8-------------8---------------------7----
B------8-------8-------------8--------------8-------8--------8----
G----------9---------9-----------9--------------9------------9-----
D--------------------------------------------------------------------
A--------------------------------------------------------------------
E--------------------------------------------------------------------

The next bit is after the intro only:

E------------------------------------------
B------------------------------------------ 
G------------------------------------------
D--14-----12-----------------------------
A-------------------14-----12------10----
E-------------------------------------------

Then the chords start ( Em, D, C, B etc.......if you want to know 
these then you can find them in the made_of_stone.crd file).

I hope somebody finds this useful. If you've got any comments or if 
you want to talk to a true Mancunian then e-mail me at the following 
address:

9448960@iona.sms.ed.ac.uk

Now if only I could work out that solo........




MADE OF STONE SOLO	BY THE STONE ROSES
==================
B     = BEND
R     = RELEASE
H     = HAMMER

e|----------12--------------------------------------------------------|
B|----12-------12------------------------12------10-----10------------|
G|-14B--14B-------14R-14-12-14--14-12-14----9H11----9H11--------------|
D|--------------------------------------------------------------------|
A|--------------------------------------------------------------------|
E|--------------------------------------------------------------------|

e|----------------------|----12----------------------------------------|
B|-12--12--12--12----12-|-15B--15-12----12------------------12---------|
G|-14B-14B-14B-12-12-14-|------------14B---14-12-14-14-12H14-----------|
D|----------------14----|----------------------------------------------|
A|----------------------|----------------------------------------------|
E|----------------------|----------------------------------------------|
            
e|------------------------------------------------------12~~~~~~~~~~~~|
B|------------------------12--------12--------12--12-15-15B~~~~~~~~~~~|
G|---------12--12-14-12-14--14-12H14--14-12H14--14--------------------|
D|----12H14--14-------------------------------------------------------|
A|-14-----------------------------------------------------------------|
E|--------------------------------------------------------------------|
e|----12-------------------------------|-------------------------------|
B|-15B--15-12---12------------------12-|-14~~~-12-14-12--14~~~-12-14---|
G|-----------14B---14-12-14-14-12H14---|-14B~~-12-14-12--14B~~-12-14---|
D|-------------------------------------|-------------------------------|
A|-------------------------------------|-------------------------------|
E|-------------------------------------|-------------------------------|
THIS LITTLE BIT IS PLAYED A FEW TIMES
e|--------------------|
B|--XXX--12--14-------|
G|--XXX--12--14-------|
D|--XXX--12--14-------|
A|--------------------|
E|--------------------|
COMMENTS/QUEERIES/ADDITIONS, MAIL ME
MARK SULLIVAN 



Important: The song above is NOT stored on the Chordie server. The original song is hosted at www.lindesign.se. Chordie works as a search engine and provides on-the-fly formatting. Chordie does not index songs against artists'/composers' will. To remove this song please click here.

This song is displayed as text-only. Transposing and tuning is only available for chordpro-songs.

Login - add to songbook

Rating click stars to rate

Layout
Accuracy

SHARE PAGE  




You need to log in to post comments