Chordie logo


Plush   Stone Temple Pilots






[too many versions]

Okay, this is Plush by Stone Temple Pilots. This version should basically 
be right, so DON'T FUCK WITH IT! And yes, it is in standard tuning.
 
Intro and exit (play 4 times on intro and 4 times on exit):
 
E ||---3---3---3---3---3---3---3---3---3---------------------|
B ||---3---3---2---1---1---0---0---1---2---------------------|
G ||---0---0---3---2---2---0---------------------------------|
D ||---0---0---0---0---0---0---------------------------------|
A ||---------------------------------------------------------|
E ||---------------------------------------------------------|
 
    1. and I feel that time's a wasted go
    tomorrow..feel....these are lies to come
e|--3-3------2-2------1--1------------0-0-|
B|--3-3------3-3------1--1------------1-1-|
G|--0-0------2-2------2--2------------0-0-|
D|--0-0------0-0------3--3------------2-2-|
A|--2-2------x-x------3--3------------3-3-|
E|--3-3------2-2------1--1----------------|
 
         So where you going to (repeat)
         So would you even (pre chorus)
e|--3-3-x---3-----3///5-----5---|
B|--3-3-x---3-----3///5-----5---|
G|--3-3-x---3-----3///5-----5---|
D|--5-5-x---5-----5///7-----7---|
A|--6-6-x---6-----6///8-----8---|
E|------x-----------------------|
 
    Care?               and I feel it...
 
e|--2----------3-------|
B|--3-----3----3----3--|
G|--2-----0----0----0--|  repeat 4x's
D|--0-----2----0----2--|
A|--------3----2----3--|
E|-------------3-------|
 
         where you goin    to         tomorrow
         where you goin   with the    mask I found
       and i feel, and i feel when the dogs begin to smell her
       will     she     smell          alone? (intro to 2nd verse)
e|---3-3-----------3-3-3---------------1--1--|
B|---3-3-----------3-3-3---------------1--1--|
G|---3-3-----------3-3-3---------------2--2--|
D|---5-5-----------5-5-5---------------3--3--|
A|---6-6-----------6-6-6---------------3--3--|
E|-------------------------------------1--1--|
 
  when the     dogs do find her  got time   time to wait for
  tomorrow    to find it         to find it      to find it
e|------------------------------------------------------------|
B|------------------------------------------------------------|
G|------------------------------------------------------------|
D|--------------------------------------------------7/8888/777|
A|-5-5-5-5-5---5/3-3-3-3-3--------3-3-3-3-3-3---3---5/6666/555|
E|-3-3-3-3-3---3/1-1-1-1-1--------1p0-0-0-0-0---0-------------|
 
(then listen to the cd and put it all together)
 
Lyrics:
verse 1
And I feel that time's a wasted go, So where ya going to tomorrow?
And I feel that these are lies to come, Would you even care?
 
And I feel it
And I feel it
 
Where you going to tomorrow?
Where ya going with the mask I found?
And I feel, and I feel when the dogs begin to smell her
Will she smell alone?
 
verse 2
And I feel, so much depnds on the weather, So is it raining in your bedroom?
And I see, that these are the eyes of disarray, Would you even care?
 
And I feel it
And she feels it
 
Where ya going to tomorrow?
Where ya going with the mask I found?
And I feel and I feel When teh dogs begin to smeell her
Will she smell alone?
 
When the dogs do find her
Got time, time to wait for tomorrow
 
Questions or comments? Mail me: arandell@students.wisc.edu




I didn't like the other tab put out so this one should be complete.  They 
might tune down a half step so find that one out for yourself.  Anyways, 
ENJOY!!
				PLUSH BY STP
			transcribed by jkep@wam.umd.edu

INTRO:
e|--3--3---x--3----3--x--3--3---3---3-3-3-3-3---|
B|--3--3---x--3----3--x--2--2---0---0-0-1-2-3---|
G|--0--0---x--2----2--x--1--1---0---0-0-0-0-0---|
D|--0--0---x--3----3--x--2--2-------------------|
A|--2--2---x----------x-------------------------|
E|--3--3---x----------x-------------------------|

    1. and I feel that time's a wasted go
    tomorrow..feel....these are lies to come
e|--3-3---------------1--1------------0-0-|
B|--3-3------3-3------1--1------------1-1-|
G|--0-0------2-2------2--2------------0-0-|
D|--0-0------0-0------3--3------------2-2-|
A|--2-2------x-x------3--3------------3-3-|
E|--3-3------2-2------1--1----------------|

         So where you going to (repeat)
         So would you even (pre chorus)
e|--3-3-x---3-----3///5-----5---|
B|--3-3-x---3-----3///5-----5---|
G|--3-3-x---3-----3///5-----5---|
D|--5-5-x---5-----5///7-----7---|
A|--6-6-x---6-----6///8-----8---|
E|------x-----------------------|

    Care?               and I feel it... 

e|--2------------------|
B|--3-----3----3----3--|
G|--2-----0----0----0--|  repeat 4x's
D|--0-----2----0----2--|
A|--------3----2----3--|
E|---------------------|

         where you goin    to         tomorrow
	 where you goin   with the    mask I found
       and i feel, and i feel when the dogs begin to smell her
       will     she     smell          alone? (intro to 2nd verse)
e|---3-3-----------3-3-3---------------1--1--|
B|---3-3-----------3-3-3---------------1--1--|
G|---3-3-----------3-3-3---------------2--2--|
D|---5-5-----------5-5-5---------------3--3--|
A|---6-6-----------6-6-6---------------3--3--|
E|-------------------------------------1--1--|

  when the     dogs do find her  got time   time to wait for
  tomorrow    to find it         to find it      to find it
e|---------------------------------------------------------|
B|---------------------------------------------------------|
G|---------------------------------------------------------|
D|--------------------------------------------------8---7--|
A|-5-5-5-5-5---5/3-3-3-3-3--------3-3-3-3-3-3---3---6---5--|
E|-3-3-3-3-3---3/1-1-1-1-1--------1p0-0-0-0-0---0----------|

(then listen to the cd and put it all together)

Lyrics:
verse 1
And I feel that time's a wasted go, So where ya going to tomorrow?
And I feel that these are lies to come, Would you even care?

And I feel it
And I feel it

Where you going to tomorrow? 
Whereya going with the mask I found?
And I feel, and I feel when the dogs begin to smell her
Will she smell alone?

verse 2 
And I feel, so much depnds on the weather, So is it raining in your bedroom?
And I see, that these are the eyes of diarray, Would you even care?

And I feel it
And she feels it

Where ya going to tomorrow?
Where ya going with the mask I found?
And I feel and I feel When teh dogs begin to smeell her
Will she smell alone?

When the dogs do find her
Got time, time to wait for tomorrow

			________	  ____	/\/	    
			|  _____|    ___  |  |  \/\
			|  |__ ____ / __| |  | __
			|   __||  | \ \   |  |/  \
			|  |   |  | __\ \ |   /\  |
			|__|   |__| |___/ |__|  |_|



Plush by Pearl Jam
 
Intro and exit (play 4 times on intro and 4 times on exit):
 
E ||---3---3---3---3---3---3---3---3---3---------------------|
B ||---3---3---2---1---1---0---0---1---2---------------------|
G ||---0---0---3---2---2---0---------------------------------|
D ||---0---0---0---0---0---0---------------------------------|
A ||---------------------------------------------------------|
E ||---------------------------------------------------------|

Chords:

     E A D G B E
GM   3 2 0 0 3 3 
F#   2 0 0 2 3 x
F    1 3 3 2 1 1
C1   3 3 2 0 1 x    
G?   3 6 5 3 3 3

D    x x 0 2 3 x 
C2   x 3 x 0 3 x
B    x 2 x 0 3 x  

fill in (/ = slide up; \ = slide down):

E ||--------------------------------|
B ||--------------------------------|
G ||--------------------------------|
D ||---7/8---8---8---8\7---7---7----|  
A ||---5/6---6---6---6\5---5---5----|
E ||--------------------------------|
    GM GM     F# F#     F F             C1 C1         G? G? 
	And I feel that time's a wasted go
        And I feel that so much depends on the weather

           G? G?          F  GM GM  
	So where ya goin' to tomorrow
        So is it raining in your bedroom

	      F# F#     F F                   C1 C1   G? G?
	And I feel that these are the lies to come
	And I feel that these are the eyes of disarray

            G? G?         F          D  C2  B  C2  
	Or would you even care	
	Or would you even care	

	      D    C2  B  C2         D  C2  B  C2
	And I feel it
	And I feel it 

	      D    C2  B  C2         G? G?  
	And I feel it	
	And she feels it

	   G? G?              F F       F F       G? G?
	Oh where ya goin' for tomorrow

        G? G?                   F F           F F    G? G?
	Where ya goin' with the mask I found

              G? G?                    F F                 F F    G? G?  	
	And I feel and I feel when the dogs begin to smell her

	G? G?            F F
	Will she smell alone
 Chorus:
 GM GM GM   GM     F F F          F   
	Where the dogs can find her

 C1 C1 C1      C1    (fill in)    GM GM GM   GM  
	Got time, time to wait 'til tomorrow

 F F F  F        C1 C1 C1   C1       (fill in)	
	To find her, to find her, to find her
   

Enjoy!

Steve S.
\



It starts out (intro) with G, Eb7, C, G.  The first G is just basically
holding the 3rd fret on the two high strings.  The Eb7 is played on the G,B,E
strings on frets 3,2,3 respectively.

The verse starts with a G, then G/F#, then F, and the C. (They're all half
notes.)

Then over the part where he says "So where you going for tomorrw"
It's Bb to C. (They're both held for a measure each.)

The part where he says "And I feeeel it..." it's a little arpeggio where
he seems to walk down the bass line... DeLeo seems to do it alot.
and way (starting on the A string):

     g-      0       0     0
     d-    0   0   0     0
     a-  5       3     2     3 

  And I  Feel it....              (The "Feel" is on the same beat as the 
                                   beginning of the arpeggio)
 Those are the are the major parts, I don't remember the outro off hand.



Important: The song above is NOT stored on the Chordie server. The original song is hosted at www.lindesign.se. Chordie works as a search engine and provides on-the-fly formatting. Chordie does not index songs against artists/composers will. To remove this song please click here.

This song is displayed as text-only. Transposing and tuning is only available for chordpro-songs.

Login - add to songbook

Rating click stars to rate

Layout
Accuracy

SHARE PAGE  




You need to log in to post comments