Chordie logo

How will i laugh tomorrow   Suicidal Tendencies








   Suicidal Tendencies - How will I Laugh Tomorrow

Just all the riffs (sorry no solo's) 
I hope i haven't left anything else out
As usual you'll have to find where everything goes yourself
Anybody know if you can get any ST tab books anywhere?
Any truth in the rumour that there is a new ST cd out 
    entitled something like 'suicidal for life'

Clean guitar for this bit

b--------0-0^1^0----------1-0-1------------0-0^1^0------------------------
g------2---------2--------------0--------2---------2--------0-----0-------
D----2-------------2----2---------2----2-------------2----2-----4---2/4\2-
A--0------------------3--------------0------------------3-----5-----3/5\3-
These two bits go over that last little bit there
with the first one probably repeated a bit

g--2-------------2------5-5---/7-7---5-5---
D--2------3------2------5-5---/7-7---5-5---
A--0------3------0------3-3---/5-5---3-3---
E---------1--------------------------------

g--2-------------2-------------------------
D--2------3------2------4-----5-5--5\4-----
A--0------3------0------2-2-2-3-3--3\2-----
E---------1----------------------------3---
riff behind verses (repeated many times)

g--2------------------------------------------------
D--2----------5------2------4----------5---5-5\4----
A--0--0-0-0-0-3--0-0-0--0-0-2--2-2-2-2-3---3-3\2----
E------------------------------------------------3--
D--------4--------5--------7---7----3-2-0-----------
A--0--0--2--0--0--3--0--0--5-5-5----------3-2-0-----
E-----------------------------------------------3---
   How will I laugh tomorrow...
g--0--2-----2--0--2-----2--0--2-----2-------------5-
D--0--2-----2--0--2-----2--0--2-----2------3------5-
A-----0-0-0-0-----0-0-0-0-----0-0-0-0------3------3-
E--3-----------3-----------3-----------0-0-1--0-0---
   Today       Today ....
   pick slide
A--x\--------------------------------------------------------
E--x\---------0-0-0-0-0-0-0-............... (lots of E chunks)
                                       Think somethin's funny

D----------------------------------------------------------2-
A----------------------------------------------------------2-
E--......................................................0-0-
                                           well laugh at this

(repeat several times)
A-----------------5\4---5\4---5\4------------------5\4--7\5---
E--0-0-0-0-0-0-0--3\2-x-3\2-x-3\2---0-0-0-0-0-0-0--3\2--5\3---

(variation played somewhere)
A-----------------5\4---5\4---5\4------------------5\4--765---
E--0-0-0-0-0-0-0--3\2-x-3\2-x-3\2---0-0-0-0-0-0-0--3\2--543---

Play these next two riffs alternately

g---------------5-------------------------4---5-5\4----------
D--2------------5------------3------------4---5-5\4----------
A--2------------3------------3------------2---3-3\2----------
E--0-------------------------1----------------------3--------
g---------------5-------------------------4---5-5\4----------
D--2------------5------------3------------4---5-5\4----------
A--2------------3--3-3-3-3-3-3------------2-2-3-3\2----------
E--0--0-0-0-0-0--------------1--1-1-1-1-1-----------3--------
This one gets played a few times and then you jump back up a string
to the other riff that looks the same shown above

D-----------------5\4---5\4---5\4------------------5\4--7\5---

A--0-0-0-0-0-0-0--3\2-x-3\2-x-3\2---0-0-0-0-0-0-0--3\2--5\3---
Lots of repetitions of diferent riffs with a few variations and then

Ending (clean guitar again)

e-----------------------0-----
b--------0-0^1^0--------1-----
g------2---------2------2-----
D----2-------------2----2-----
A--0--------------------0-----

Matthew Johnson



Important: The song above is NOT stored on the Chordie server. The original song is hosted at www.lindesign.se. Chordie works as a search engine and provides on-the-fly formatting. Chordie does not index songs against artists/composers will. To remove this song please click here.

This song is displayed as text-only. Transposing and tuning is only available for chordpro-songs.

Login - add to songbook

Rating click stars to rate

Layout
Accuracy

SHARE PAGE  

You need to log in to post comments