Guitar Tabs, Chords and Lyrics


Alright  Supergrass



        But you [Em(7]see, as she turns, we are str[A]ange, in our worlds but we are...
Return to verse pattern.I'm not so sure about the lyrics in the chorus but the
rest is pretty straight forward. Basslines.......
Over the D
e ------------------------------|
B------------------------------|
G------------------------------|   1 Bar
D-----------------4---------7-|
A---5--------5----------------|
E-------------------------------|                           

Over the Em(7)
e ------------------------------|
B------------------------------|
G----------------------------4--|   1 Bar
D-----------------5-----------|
A---7--------7----------------|
E-------------------------------|

I think just the lowest note of each chord is played for the rest of
the bassline.....probably.
The Solo:
Notes off a G blues scale I think, something like this to begin with
anyway.....
     e-----------------------------------------------------------------
    B-----------------------------------------------------------------
    G----------------------------------5--5-55--3-----------------
    D------------------------3-----------------------5-3-----------
    A----------------5--3--------5-----------------------3--------
    E--(6)-----------------------------------------------------------

It then gets a bit too messy for me to handle- make it up or work it out
yourselves if you must (send it along!).
The funny sort of Hawaiin(spelling?) bit is similar to this.....
e-----------------------------------|
B-----------------------------------|
G-----------------------b~~~~---|        1 Bar  (but played 4 times over D.)
D-------------12--14-------------|
A---12--14-----------------------|
E-----------------------------------|
e---------------------------------|
B---------------------------------|
G----------------------b~~~~--|      Played twice over Em(7)
D-------------12--12----------|
A---12--14--------------------|
E--------------------------------|

For some reason I cannot truly find the notes for this solo but this is what
I'm playing . I'm also not sure about the bass and piano chords over the first
section of the solo and I'd welcome additions/improvements. I'll attempt
some more if I get a response for this but it makes me nervous when I see a
transciption that's different to mine (see Big Me:Foo Fighters), so
mail me please.....
Oh yeah, I'm sorry if these things are messy when you get them because
they start out really tidy and seem to disintegrate somewhere along the line

Important: The song above is NOT stored on the Chordie server. The original song is hosted at www.lindesign.se. Chordie works as a search engine and provides on-the-fly formatting. Chordie does not index songs against artists'/composers' will. To remove this song please click here.

Text color:
Chord color:
Chord grids: 
Font size:    
Page size: 

A
variations - click chord images

Login - add to songbook

Transpose chords

Tuning

Rating click stars to rate

Layout
Accuracy

SHARE PAGE  




You need to log in to post comments