""; ?> First light by Richard Thompson - guitar chords, guitar tabs and lyrics - chordie

First light

Richard Thompson



-|------------------------------------------------------------------------|

-|-----------------------------------12-10--------------------------------|

-|-(b11)-9-p7-9-p7-9-(b11)-(b11)-----------(b11)-9-7----------7-----------|

-|---------------------------------------------------7--(7)/9---------7-9-|

-|--------------------------------------------------------------(7)/9-----|

-|------------------------------------------------------------------------|

-|-------------------|

-|-------------------|

-|-7-----------------|

-|---9-7-------------|

-|-------9-5---------|

-|-------------------|


 DCBm
 Give me what I ask for 
 DCBm
 Give me what I long for 
 GDGGDG
 First light,    first light 
 DCBm
came to you for refuge 
 DCBm
Don't leave me to the thieves 
 DCBm
Don't leave me to my own 
 DCBmG
 You're my disease  
 GDGGDG
 First light,    first light 
 GDGGDG
 First light,    first light 
(Guitar solo)
Take me through the mountains
Lead me from confusion
Take me by the hand
Through real and through illusion
First light, first light
First light, first light
Give me what I ask for
Give me what I long for
Give me what I ask for
Give me what I long for
First light, first light
First light, first light
Give me what I ask for
Give me what I long for
Give me what I ask for
Give me what I long for




Bm C D G
variations - click chord images
Transpose chords:
Tuning:
Cool service:
View: Size:
A  A  A
Rating:
Layout:
  • Currently 0/5 Stars.
  • 1
  • 2
  • 3
  • 4
  • 5
 
Accuracy:
  • Currently 1/5 Stars.
  • 1
  • 2
  • 3
  • 4
  • 5
 
click stars to rate
Chordie recommends:
Learn to play songs at Jamplay.com with video guitar lessons
Songbook:
Login to add this song to your songbook
Support the artist
Preview/buy this song
MSN Music
Why this non-profit ad?

 
login to add comments/video/corrections