Guitar Tabs, Chords and Lyrics


Fait divers   Telephone








Fait Divers (telephone, parole et musique : J-L Aubert)

3x
-------------|-------------------------|---------
--8--7-------|--------6----6--5--------|--------- 
--------7--5_|_-------5----5-----------|---------
-----------5_|_---------------------7--|--7___--- 
----------(3)|----------------------7--|--7___---
-------------|---------------------(5)-|-(5)-----
-------------|------------|--------------------------------------------------
--8--7-------|------------|-------------------------------------------------- 
--------7----|------------|-------------------------------------------------- 
-----------5_|_---------5_|_---5--5--5--5--5--5------------------------------
-----------5_|_---------5_|_---5--5--5--5--5--5------------------------------
----------(3)|------------|--------------------------------------------------

-----------------------------------------------------------------------------
-----------------------------------------------------------------------------
------------------------7--7----5----5---------------------------------------
-----7--7----5----5--5--7--7----5----5---------------------------------------
-----7--7----5----5--5--5--5----3----3---------------------------------------
-----5--5----3----3--3-------------------------------------------------------

   Elle avait a peine avale ses quinze ans 
   qui d'ailleurs lui restaient coinces dedans
   Elle avait grandi arrosee par l'argent
   On pousse vite chez ce genre de gens

Refrain

[----------------------------------------------------------------------------
[----------------------------------------------------------------------------
[--7-----------------------------------------7-------------------------------
[--7---------------------7--7----7--7--7--7--7-------------------------------
[--5---------------------7--7----7--7--7--7--5-------------------------------
[------------------------5--5----5--5--7--5----------------------------------
[
[----------------------------------------------------------------------------
[--------------------------------B-------------------------------------------
[-------------------------------/4\-4-2---2___-------------------------------
[--------------------------------------4-------------------------------------
[----------------------------------------------------------------------------
[----------------------------------------------------------------------------

    Elle s'appelait Fait Divers  
    une fleur fanee en plein hiver
[----------------------------------------------------------------------------
[----------------------------------------------------------------------------
[-------------------------------5--------------------------------------------
[--7----------------------------5--------------------------------------------
[--7----------------------------3--------------------------------------------
[--5-------------------------------------------------------------------------
[
[----------------------------------------------------------------------------
[----------------------------------------B-----------------------------------
[__2--------------------------------2--4/4\4-2-------------------------------
[--------------------------------4--------------4----------------------------
[--------------------------------------------------2____---------------------
[----------------------------------------------------------------------------
   Oh les dents sont plus dures que la chair

-----------------------------------------------------------------------------
-----------------------------------------------------------------------------
---4----------------------9--------------------------------------------------
---4----------------------9--------------------------------------------------
---2----------------------7--------------------------------------------------
-----------------------------------------------------------------------------
   tu sais ici ont n'aime que la pierre       oh oh oh  

-----------------------------------------------------------------------------
-----------------------------------------------------------------------------
----------------------7--7----5____------------------------7--7----5____-----
---7--7----5----5--5--7--7----5____----7--7----5--5--5--5--7--7----5____-----
---7--7----5----5--5--5--5----3____----7--7----5--5--5--5--5--5----3____-----
---5--5----3----3--3-------------------5--5----3--3--3--3--------------------
				oh oh oh       sauve toi

2eme couplet

Elle avait les manieres du grand monde
Devant sa tele fait le tour du monde
Mais son univers etait un petit monde 
Ou se battaient tous les chagrins du monde

Elle causait plus a ses parents, non
Depuis une sombre histoire d'amant
Son pere gueulait a sa mere "tu mens"
Pendant qu'eux s'cognaient fort elle criait "maman"

Refrain

Elle s'appelait Fait Divers
Dieu que cette fille etait solitaire
Oh, les dents sont plus dures que la chair
Tu sais ici on n'aime que la pierre

3eme couplet
Elle avait a peine avale ses quinze ans 
qui d'ailleurs lui restaient coinces dedans
Qu'elle avala une boite de tranquilisants
Juste histoire de tuer le temps
Et en suivant son enterrement 
Les gens ne comprenaient pas vraiment
Qu'ils avaient tue cet enfant 
Au fond d'eux enterre depuis longtemps

Tuer l'enfant, tu es l'enfant
Tuer l'enfant qu'on a dedans
C'est ca l'auto-avortement
Reste le mome perdu comme avant
Dans le ventre d'un bon moment

Reprise refrain puis

---------------------|------------|------------------------|-----------------
---------------------|------------|-------------8--7-------|-----------------
---9---------------5_|_-----------|-------------------7--5_|_----------------
---9---------------5_|_--------7--|----7-----------------5_|_------7--7------
---7-----------------|---------7--|----7-------------------|-------7--7------
---------------------|--------(5)-|---(5)------------------|------(5)(5)-----
...que la pierre
 					   Chorus	      A		   G
------|-----------------------|----------[]----------------|-----------------
------|------------8--7-------|----------[]----------------|-----------------
------|------------------7----|----------[]-----------0----|--2--------2_____
----7-|----7----------------5_|__________[]__---0--2-----2-|-----------------
----7-|----7----------------5_|__________[]__--------------|-----------------
------|-----------------------|----------[]----------------|-----------------
  D	  C	   	A         G        D    C
---------------------|------------------|-------------------|----------------
---------------------|------------------|---------B---------|----------------
__---2----------0----|-2--2___________2_|_------4/-\4--2--0-|----------------
----------0--2-----2-|------------------|-------------------|----------------
---------------------|------------------|-------------------|----------------
---------------------|------------------|-------------------|----------------
  A		G        D      C             A             G
---------------------|---------------------|--------------------------|------
-------------------1_|_--0--1------3--3--5-|-5--7--7--8--8\7-5--7\5-3-|------
-2--------2_______---|---------------------|--------------------------|------
---------------------|---------------------|--------------------------|------
---------------------|---------------------|--------------------------|------
---------------------|---------------------|--------------------------|------
 D             C	C
---------------------|------------------|---------------------|--------------
-5\3-1--3\1-0--1-----|------------------|----------8--7-------|--------------
---------------------|---5--------------|----------------7--5_|_-------------
---------------------|---5------------7-|----7--------------5_|_-------------
---------------------|----------------7-|----7----------------|--------------
---------------------|------------------|---------------------|--------------

--5-------------------|------------------[|]
-----8--5-------------|------------------[|]
-----------7--5-------|------------------[|]
-----------------7--5-|-5--7--------7----[|]
----------------------|-------------7----[|]
----------------------|------------------[|]

----------
X-Sun-Data-Type: default
X-Sun-Data-Description: default
X-Sun-Data-Name: fait_divers


Voici l'une des plus belles chansons de telephone:

Fait Divers (telephone, parole et musique : J-L Aubert)

3x
-------------|-------------------------|---------
--8--7-------|--------6----6--5--------|--------- 
--------7--5_|_-------5----5-----------|---------
-----------5_|_---------------------7--|--7___--- 
----------(3)|----------------------7--|--7___---
-------------|---------------------(5)-|-(5)-----
-------------|------------|--------------------------------------------------
--8--7-------|------------|-------------------------------------------------- 
--------7----|------------|-------------------------------------------------- 
-----------5_|_---------5_|_---5--5--5--5--5--5------------------------------
-----------5_|_---------5_|_---5--5--5--5--5--5------------------------------
----------(3)|------------|--------------------------------------------------

-----------------------------------------------------------------------------
-----------------------------------------------------------------------------
------------------------7--7----5----5---------------------------------------
-----7--7----5----5--5--7--7----5----5---------------------------------------
-----7--7----5----5--5--5--5----3----3---------------------------------------
-----5--5----3----3--3-------------------------------------------------------

   Elle avait a peine avale ses quinze ans 
   qui d'ailleurs lui restaient coinces dedans
   Elle avait grandi arrosee par l'argent
   On pousse vite chez ce genre de gens

Refrain

[----------------------------------------------------------------------------
[----------------------------------------------------------------------------
[--7-----------------------------------------7-------------------------------
[--7---------------------7--7----7--7--7--7--7-------------------------------
[--5---------------------7--7----7--7--7--7--5-------------------------------
[------------------------5--5----5--5--7--5----------------------------------
[
[----------------------------------------------------------------------------
[--------------------------------B-------------------------------------------
[-------------------------------/4\-4-2---2___-------------------------------
[--------------------------------------4-------------------------------------
[----------------------------------------------------------------------------
[----------------------------------------------------------------------------

    Elle s'appelait Fait Divers  
    une fleur fanee en plein hiver
[----------------------------------------------------------------------------
[----------------------------------------------------------------------------
[-------------------------------5--------------------------------------------
[--7----------------------------5--------------------------------------------
[--7----------------------------3--------------------------------------------
[--5-------------------------------------------------------------------------
[
[----------------------------------------------------------------------------
[----------------------------------------B-----------------------------------
[__2--------------------------------2--4/4\4-2-------------------------------
[--------------------------------4--------------4----------------------------
[--------------------------------------------------2____---------------------
[----------------------------------------------------------------------------
   Oh les dents sont plus dures que la chair

-----------------------------------------------------------------------------
-----------------------------------------------------------------------------
---4----------------------9--------------------------------------------------
---4----------------------9--------------------------------------------------
---2----------------------7--------------------------------------------------
-----------------------------------------------------------------------------
   tu sais ici ont n'aime que la pierre       oh oh oh  

-----------------------------------------------------------------------------
-----------------------------------------------------------------------------
----------------------7--7----5____------------------------7--7----5____-----
---7--7----5----5--5--7--7----5____----7--7----5--5--5--5--7--7----5____-----
---7--7----5----5--5--5--5----3____----7--7----5--5--5--5--5--5----3____-----
---5--5----3----3--3-------------------5--5----3--3--3--3--------------------
				oh oh oh       sauve toi

2eme couplet

Elle avait les manieres du grand monde
Devant sa tele fait le tour du monde
Mais son univers etait un petit monde 
Ou se battaient tous les chagrins du monde

Elle causait plus a ses parents, non
Depuis une sombre histoire d'amant
Son pere gueulait a sa mere "tu mens"
Pendant qu'eux s'cognaient fort elle criait "maman"

Refrain

Elle s'appelait Fait Divers
Dieu que cette fille etait solitaire
Oh, les dents sont plus dures que la chair
Tu sais ici on n'aime que la pierre

3eme couplet
Elle avait a peine avale ses quinze ans 
qui d'ailleurs lui restaient coinces dedans
Qu'elle avala une boite de tranquilisants
Juste histoire de tuer le temps
Et en suivant son enterrement 
Les gens ne comprenaient pas vraiment
Qu'ils avaient tue cet enfant 
Au fond d'eux enterre depuis longtemps

Tuer l'enfant, tu es l'enfant
Tuer l'enfant qu'on a dedans
C'est ca l'auto-avortement
Reste le mome perdu comme avant
Dans le ventre d'un bon moment

Reprise refrain puis

---------------------|------------|------------------------|-----------------
---------------------|------------|-------------8--7-------|-----------------
---9---------------5_|_-----------|-------------------7--5_|_----------------
---9---------------5_|_--------7--|----7-----------------5_|_------7--7------
---7-----------------|---------7--|----7-------------------|-------7--7------
---------------------|--------(5)-|---(5)------------------|------(5)(5)-----
...que la pierre
 					   Chorus	      A		   G
------|-----------------------|----------[]----------------|-----------------
------|------------8--7-------|----------[]----------------|-----------------
------|------------------7----|----------[]-----------0----|--2--------2_____
----7-|----7----------------5_|__________[]__---0--2-----2-|-----------------
----7-|----7----------------5_|__________[]__--------------|-----------------
------|-----------------------|----------[]----------------|-----------------
  D	  C	   	A         G        D    C
---------------------|------------------|-------------------|----------------
---------------------|------------------|---------B---------|----------------
__---2----------0----|-2--2___________2_|_------4/-\4--2--0-|----------------
----------0--2-----2-|------------------|-------------------|----------------
---------------------|------------------|-------------------|----------------
---------------------|------------------|-------------------|----------------
  A		G        D      C             A             G
---------------------|---------------------|--------------------------|------
-------------------1_|_--0--1------3--3--5-|-5--7--7--8--8\7-5--7\5-3-|------
-2--------2_______---|---------------------|--------------------------|------
---------------------|---------------------|--------------------------|------
---------------------|---------------------|--------------------------|------
---------------------|---------------------|--------------------------|------
 D             C	C
---------------------|------------------|---------------------|--------------
-5\3-1--3\1-0--1-----|------------------|----------8--7-------|--------------
---------------------|---5--------------|----------------7--5_|_-------------
---------------------|---5------------7-|----7--------------5_|_-------------
---------------------|----------------7-|----7----------------|--------------
---------------------|------------------|---------------------|--------------

--5-------------------|------------------[|]
-----8--5-------------|------------------[|]
-----------7--5-------|------------------[|]
-----------------7--5-|-5--7--------7----[|]
----------------------|-------------7----[|]
----------------------|------------------[|]

Voila, n'hesitez pas a poster ou a m'envoyer vos suggestions, etc...


----------
X-Sun-Data-Type: default
X-Sun-Data-Description: default
X-Sun-Data-Name: .plan

		 /    /
	        /    /    _/
	       ___  / 
	      /    /     /
	    _/   _/    _/      Autrement dit, Benoit Parmentier

Adresse : Ch 411 Residence des eleves de l'ECP
	  2,Avenue Sully Prud'homme
	  92295 Chatenay Malabry CEDEX		

Tel     : 46 83 77 83 



Important: The song above is NOT stored on the Chordie server. The original song is hosted at www.lindesign.se. Chordie works as a search engine and provides on-the-fly formatting. Chordie does not index songs against artists'/composers' will. To remove this song please click here.

This song is displayed as text-only. Transposing and tuning is only available for chordpro-songs.

Login - add to songbook

Rating click stars to rate

Layout
Accuracy

SHARE PAGE  




You need to log in to post comments